  0
SECTION
  2
HEADER
  9
$ACADVER
  1
AC1009
  9
$INSBASE
 10
0
 20
0
 30
0
  9
$EXTMIN
 10
0
 20
0
  9
$EXTMAX
 10
420
 20
297
  9
$LIMMIN
 10
0
 20
0
  9
$LIMMAX
 10
420
 20
297
  9
$LTSCALE
 40
1
  0
ENDSEC
  0
SECTION
  2
TABLES
  0
TABLE
  2
LTYPE
 70
     9
  0
LTYPE
  2
CONTINUOUS
 70
    64
  3
実線
 72
    65
 73
     0
 40
0.0
  0
LTYPE
  2
DASHED1
 70
    64
  3
--  --  --  --  --  --  --  --  
 72
    65
 73
     2
 40
2.5
 49
1.25
 49
-1.25
  0
LTYPE
  2
DASHED2
 70
    64
  3
----    ----    ----    ----    
 72
    65
 73
     2
 40
5.0
 49
2.5
 49
-2.5
  0
LTYPE
  2
DASHED3
 70
    64
  3
------  ------  ------  ------  
 72
    65
 73
     2
 40
5.0
 49
3.75
 49
-1.25
  0
LTYPE
  2
CENTER1
 70
    64
  3
----- - ----- - ----- - ----- - 
 72
    65
 73
     4
 40
10.0
 49
6.25
 49
-1.25
 49
1.25
 49
-1.25
  0
LTYPE
  2
CENTER2
 70
    64
  3
----------  --  ----------  --  
 72
    65
 73
     4
 40
20.0
 49
12.5
 49
-2.5
 49
2.5
 49
-2.5
  0
LTYPE
  2
PHANTOM1
 70
    64
  3
--- - - --- - - --- - - --- - - 
 72
    65
 73
     6
 40
10.0
 49
3.25
 49
-1.25
 49
1.25
 49
-1.25
 49
1.25
 49
-1.25
  0
LTYPE
  2
PHANTOM2
 70
    64
  3
--------  -  -  --------  -  -  
 72
    65
 73
     6
 40
20.0
 49
10.0
 49
-2.5
 49
1.25
 49
-2.5
 49
1.25
 49
-2.5
  0
LTYPE
  2
DOT
 70
    64
  3
-   -   -   -   -   -   -   -   
 72
    65
 73
     2
 40
2.5
 49
0.625
 49
-1.875
  0
LTYPE
  2
DUMMY
 70
    64
  3
ダミー
 72
    65
 73
     0
 40
0.0
  0
LTYPE
  2
RAND1
 70
    64
  3
ランダム線1
 72
    65
 73
     4
 40
10.0
 49
1.0
 49
-2.0
 49
3.0
 49
-4.0
  0
LTYPE
  2
RAND2
 70
    64
  3
ランダム線2
 72
    65
 73
     4
 40
14.0
 49
2.0
 49
-3.0
 49
4.0
 49
-5.0
  0
LTYPE
  2
RAND3
 70
    64
  3
ランダム線3
 72
    65
 73
     4
 40
18.0
 49
3.0
 49
-4.0
 49
5.0
 49
-6.0
  0
LTYPE
  2
RAND4
 70
    64
  3
ランダム線4
 72
    65
 73
     4
 40
22.0
 49
4.0
 49
-5.0
 49
6.0
 49
-7.0
  0
LTYPE
  2
RAND5
 70
    64
  3
ランダム線5
 72
    65
 73
     4
 40
26.0
 49
5.0
 49
-6.0
 49
7.0
 49
-8.0
  0
LTYPE
  2
LONG1
 70
    64
  3
----------  --  ----------  --  
 72
    65
 73
     4
 40
40.0
 49
32.5
 49
-2.5
 49
2.5
 49
-2.5
  0
LTYPE
  2
LONG2
 70
    64
  3
--------  -  -  --------  -  -  
 72
    65
 73
     6
 40
40.0
 49
30.0
 49
-2.5
 49
1.25
 49
-2.5
 49
1.25
 49
-2.5
  0
LTYPE
  2
LONG3
 70
    64
  3
+++++++++++++++..+++++++++++++++
 72
    65
 73
     2
 40
40.0
 49
37.5
 49
-2.5
  0
LTYPE
  2
LONG4
 70
    64
  3
+++++++++++++++..+++++++++++++++
 72
    65
 73
     2
 40
80.0
 49
75.0
 49
-5.0
  0
LTYPE
  2
LONG5
 70
    64
  3
----------  --  ----------  --  
 72
    65
 73
     4
 40
60.0
 49
37.5
 49
-7.5
 49
7.5
 49
-7.5
  0
LTYPE
  2
dashed
 70
   64
  3
-------   -------------   ------
 72
   65
 73
    2
 40
7.5
 49
6
 49
-1.5
  0
LTYPE
  2
dashed_spaced
 70
   64
  3
----        --------        ----
 72
   65
 73
    2
 40
12
 49
6
 49
-6
  0
LTYPE
  2
long_dashed_dotted
 70
   64
  3
------------- --- --------------
 72
   65
 73
    4
 40
15.25
 49
12
 49
-1.5
 49
0.25
 49
-1.5
  0
LTYPE
  2
long_dashed_double-dotted
 70
   64
  3
----------- --- --- ------------
 72
   65
 73
    6
 40
17
 49
12
 49
-1.5
 49
0.25
 49
-1.5
 49
0.25
 49
-1.5
  0
LTYPE
  2
long_dashed_triplicate-dotted
 70
   64
  3
--------- --- --- --- ----------
 72
   65
 73
    8
 40
18.75
 49
12
 49
-1.5
 49
0.25
 49
-1.5
 49
0.25
 49
-1.5
 49
0.25
 49
-1.5
  0
LTYPE
  2
dotted
 70
   64
  3
   -       -       -       -    
 72
   65
 73
    2
 40
1.75
 49
0.25
 49
-1.5
  0
LTYPE
  2
chain
 70
   64
  3
-------------- -- --------------
 72
   65
 73
    4
 40
18.5
 49
12
 49
-1.5
 49
3.5
 49
-1.5
  0
LTYPE
  2
chain_double_dash
 70
   64
  3
------------ -- -- -------------
 72
   65
 73
    6
 40
23.5
 49
12
 49
-1.5
 49
3.5
 49
-1.5
 49
3.5
 49
-1.5
  0
LTYPE
  2
dashed_dotted
 70
   64
  3
-----------     -     ----------
 72
   65
 73
    4
 40
9.25
 49
6
 49
-1.5
 49
0.25
 49
-1.5
  0
LTYPE
  2
double-dashed_dotted
 70
   64
  3
------   -----------   -   -----
 72
   65
 73
    6
 40
16.75
 49
6
 49
-1.5
 49
6
 49
-1.5
 49
0.25
 49
-1.5
  0
LTYPE
  2
dashed_double-dotted
 70
   64
  3
---------    -    -    ---------
 72
   65
 73
    6
 40
11
 49
6
 49
-1.5
 49
0.25
 49
-1.5
 49
0.25
 49
-1.5
  0
LTYPE
  2
double-dashed_double-dotted
 70
   64
  3
-----   ---------   -   -   ----
 72
   65
 73
    8
 40
18.5
 49
6
 49
-1.5
 49
6
 49
-1.5
 49
0.25
 49
-1.5
 49
0.25
 49
-1.5
  0
LTYPE
  2
dashed_triplicate-dotted
 70
   64
  3
-------    -    -    -    ------
 72
   65
 73
    8
 40
12.75
 49
6
 49
-1.5
 49
0.25
 49
-1.5
 49
0.25
 49
-1.5
 49
0.25
 49
-1.5
  0
LTYPE
  2
double-dashed_triplicate-dotted
 70
   64
  3
-----  ---------  -  -  -  -----
 72
   65
 73
   10
 40
20.25
 49
6
 49
-1.5
 49
6
 49
-1.5
 49
0.25
 49
-1.5
 49
0.25
 49
-1.5
 49
0.25
 49
-1.5
  0
LTYPE
  2
undefined
 70
   64
  3
--------------------------------
 72
   65
 73
    0
 40
0
  0
ENDTAB
  0
TABLE
  2
STYLE
  5
3
100
AcDbSymbolTable
 70
     1
  0
STYLE
  5
10
100
AcDbSymbolTableRecord
100
AcDbTextStyleTableRecord
  2
STANDARD
 70
     0
 40
0.0
 41
1.0
 50
0.0
 71
     0
 42
0.2
  3
txt
  4
bigfont.shx
  0
STYLE
  5
26
100
AcDbSymbolTableRecord
100
AcDbTextStyleTableRecord
  2
TATEGAKI
 70
    68
 40
0.0
 41
1.0
 50
0.0
 71
     0
 42
1.0
  3
txt
  4
bigfont.shx
  0
ENDTAB
  0
TABLE
  2
LAYER
 70
    6
  0
LAYER
  2
_0-0_
 70
   64
 62
    7
  6
CONTINUOUS
  0
LAYER
  2
_1-0_
 70
   64
 62
    7
  6
CONTINUOUS
  0
LAYER
  2
_1-1_
 70
   64
 62
    7
  6
CONTINUOUS
  0
LAYER
  2
_1-2_
 70
   64
 62
    7
  6
CONTINUOUS
  0
LAYER
  2
_1-3_
 70
   64
 62
    7
  6
CONTINUOUS
  0
LAYER
  2
ADD_LINE
 70
   64
 62
    7
  6
CONTINUOUS
  0
ENDTAB
  0
ENDSEC
  0
SECTION
  2
BLOCKS
  0
ENDSEC
  0
SECTION
  2
ENTITIES
  0
LINE
  8
_0-0_
  6
CONTINUOUS
 62
    5
 10
6.7567526327597136
 20
280.13513513513516
 11
406.75677325274495
 21
280.13513513513516
  0
LINE
  8
_0-0_
  6
CONTINUOUS
 62
    5
 10
406.75677325274495
 20
10.13513513513513
 11
6.7567526327597136
 21
10.13513513513513
  0
LINE
  8
_0-0_
  6
CONTINUOUS
 62
    5
 10
406.75677325274495
 20
30.135133073136615
 11
6.7567402607685949
 21
30.135133073136615
  0
LINE
  8
_0-0_
  6
CONTINUOUS
 62
    5
 10
371.75678150073907
 20
10.13513513513513
 11
371.75678150073907
 21
30.135133073136615
  0
LINE
  8
_0-0_
  6
CONTINUOUS
 62
    5
 10
137.02703939901818
 20
30.135133073136615
 11
137.02703939901818
 21
10.13513513513513
  0
LINE
  8
_0-0_
  6
CONTINUOUS
 62
    5
 10
214.86486486486487
 20
30.135133073136615
 11
214.86486486486487
 21
10.13513513513513
  0
LINE
  8
_0-0_
  6
CONTINUOUS
 62
    5
 10
137.02703939901818
 20
20.135134104135886
 11
214.86486486486487
 21
20.135134104135886
  0
LINE
  8
_0-0_
  6
CONTINUOUS
 62
    5
 10
396.48648648648651
 20
25.945945945945951
 11
383.91891891891896
 21
13.378379924877265
  0
LINE
  8
_1-0_
  6
CONTINUOUS
 62
    7
 10
47.774753055057005
 20
110.45587488122889
 11
46.297438337996198
 21
113.73879510003168
  0
LINE
  8
_1-0_
  6
CONTINUOUS
 62
    7
 10
46.297438337996198
 20
113.73879510003168
 11
50.674661172402864
 21
115.70853980811867
  0
LINE
  8
_1-0_
  6
CONTINUOUS
 62
    7
 10
50.674661172402864
 20
115.70853980811867
 11
52.151975889463699
 21
112.42561958931589
  0
LINE
  8
_1-0_
  6
CONTINUOUS
 62
    7
 10
52.151975889463699
 20
112.42561958931589
 11
47.774753055057005
 21
110.45587488122889
  0
LINE
  8
_1-0_
  6
CONTINUOUS
 62
    7
 10
46.297438337996198
 20
113.73879510003168
 11
52.151975889463699
 21
112.42561958931589
  0
LINE
  8
_1-0_
  6
CONTINUOUS
 62
    7
 10
98.094573149809975
 20
137.04750267235011
 11
99.571887866870782
 21
133.76458245354729
  0
LINE
  8
_1-0_
  6
CONTINUOUS
 62
    7
 10
99.571887866870782
 20
133.76458245354729
 11
95.194652660472983
 21
131.79483774546031
  0
LINE
  8
_1-0_
  6
CONTINUOUS
 62
    7
 10
145.51448512721706
 20
158.38646553658151
 11
146.99179984427789
 21
155.10354531777872
  0
LINE
  8
_1-0_
  6
CONTINUOUS
 62
    7
 10
146.99179984427789
 20
155.10354531777872
 11
142.61456463788008
 21
153.13380060969172
  0
LINE
  8
_1-2_
  6
CONTINUOUS
 62
    3
 10
51.773219752956095
 20
113.46732887061867
 11
53.592768488703541
 21
114.0791485760663
  0
LINE
  8
ADD_LINE
  6
DOT
 62
    7
 10
50.112948031038854
 20
118.71159321552999
 11
49.940259778821797
 21
119.28651964342272
  0
LINE
  8
_1-2_
  6
CONTINUOUS
 62
    3
 10
49.940259778821797
 20
119.28651964342272
 11
50.112948031038854
 21
118.71159321552999
  0
LINE
  8
_1-2_
  6
CONTINUOUS
 62
    3
 10
50.976463524070937
 20
115.83688684411952
 11
51.775793127111484
 21
113.45967060810811
  0
LINE
  8
_1-2_
  6
CONTINUOUS
 62
    3
 10
49.940259778821797
 20
119.28651964342272
 11
51.836960251266902
 21
119.92429578626479
  0
LINE
  8
_1-2_
  6
CONTINUOUS
 62
    3
 10
53.592768488703541
 20
114.0791485760663
 11
51.836960251266902
 21
119.92429578626479
  0
LINE
  8
_1-0_
  6
CONTINUOUS
 62
    7
 10
98.094573149809975
 20
137.04749030035896
 11
99.571887866870782
 21
133.76457008155617
  0
LINE
  8
_1-0_
  6
CONTINUOUS
 62
    7
 10
99.571887866870782
 20
133.76457008155617
 11
95.194652660472983
 21
131.79482537346917
  0
LINE
  8
_1-2_
  6
CONTINUOUS
 62
    3
 10
99.184050688872475
 20
134.8029512972445
 11
100.9982052364865
 21
135.43061952333193
  0
LINE
  8
ADD_LINE
  6
DOT
 62
    7
 10
97.478101575696797
 20
140.03253008868245
 11
97.300365551097983
 21
140.60592238967484
  0
LINE
  8
_1-2_
  6
CONTINUOUS
 62
    3
 10
97.300365551097983
 20
140.60592238967484
 11
97.478101575696797
 21
140.03253008868245
  0
LINE
  8
_1-2_
  6
CONTINUOUS
 62
    3
 10
98.366657978779571
 20
137.16545723580026
 11
99.186698294974661
 21
134.79530540672511
  0
LINE
  8
_1-2_
  6
CONTINUOUS
 62
    3
 10
42.723132984058282
 20
117.06460901208827
 11
43.479519405880495
 21
117.32632611248945
  0
LINE
  8
_1-2_
  6
CONTINUOUS
 62
    3
 10
44.641818484744505
 20
118.57719627586572
 11
98.366657978779571
 21
137.16545723580026
  0
LINE
  8
_1-2_
  6
CONTINUOUS
 62
    3
 10
43.617034087309975
 20
116.88269125448691
 11
43.479519405880495
 21
117.32632611248945
  0
LINE
  8
_1-2_
  6
CONTINUOUS
 62
    3
 10
42.864482982738593
 20
116.60851555901606
 11
42.723132984058282
 21
117.06460901208827
  0
LINE
  8
_1-2_
  6
CONTINUOUS
 62
    3
 10
44.346226872624584
 20
116.91645441828548
 11
43.87348071948901
 21
116.75287195154139
  0
LINE
  8
_1-2_
  6
CONTINUOUS
 62
    3
 10
44.471864442567579
 20
117.16466130437078
 11
44.264881030933282
 21
117.83255087362754
  0
LINE
  8
_1-2_
  6
CONTINUOUS
 62
    3
 10
42.266062143686668
 20
116.19672620618667
 11
42.738833040804479
 21
116.36030867293076
  0
LINE
  8
_1-2_
  6
CONTINUOUS
 62
    3
 10
97.478101575696797
 20
140.03253008868245
 11
40.746002197265625
 21
120.40377230257602
  0
LINE
  8
_1-2_
  6
CONTINUOUS
 62
    3
 10
42.009627883498752
 20
116.32653313714106
 11
40.746002197265625
 21
120.40377230257602
  0
LINE
  8
_1-2_
  6
CONTINUOUS
 62
    3
 10
100.9982052364865
 20
135.43061952333193
 11
99.191449139569258
 21
141.26022751266893
  0
LINE
  8
_1-2_
  6
CONTINUOUS
 62
    7
 10
40.746002197265625
 20
120.40377230257602
 11
36.03759353225297
 21
134.01224497202281
  0
LINE
  8
ADD_LINE
  6
DOT
 62
    7
 10
99.571887866870782
 20
133.76458245354729
 11
99.45873363597974
 21
120.79744906038852
  0
LINE
  8
_1-0_
  6
CONTINUOUS
 62
    7
 10
95.194652660472983
 20
131.79483774546031
 11
93.734485523120782
 21
135.03968934755068
  0
LINE
  8
_1-0_
  6
CONTINUOUS
 62
    7
 10
95.194652660472983
 20
131.79482537346917
 11
93.734460779138516
 21
135.03967697555956
  0
LINE
  8
_1-0_
  6
CONTINUOUS
 62
    7
 10
93.734485523120782
 20
135.03968934755068
 11
99.571887866870782
 21
133.76458245354729
  0
LINE
  8
_1-2_
  6
CONTINUOUS
 62
    7
 10
51.836960251266902
 20
119.92429578626479
 11
51.492895177892734
 21
120.94759554476352
  0
LINE
  8
_1-0_
  6
CONTINUOUS
 62
    7
 10
49.940259778821797
 20
119.28651964342272
 11
49.634448902027032
 21
120.30459842166385
  0
LINE
  8
_1-0_
  6
CONTINUOUS
 62
    7
 10
145.51448512721706
 20
158.38646553658151
 11
146.99179984427789
 21
155.10354531777872
  0
LINE
  8
_1-0_
  6
CONTINUOUS
 62
    7
 10
146.99179984427789
 20
155.10354531777872
 11
142.61456463788008
 21
153.13380060969172
  0
LINE
  8
_1-0_
  6
CONTINUOUS
 62
    7
 10
145.51448512721706
 20
158.38645316459039
 11
146.99179984427789
 21
155.10353294578761
  0
LINE
  8
_1-0_
  6
CONTINUOUS
 62
    7
 10
146.99179984427789
 20
155.10353294578761
 11
142.61456463788008
 21
153.1337882377006
  0
LINE
  8
_1-2_
  6
CONTINUOUS
 62
    3
 10
146.60396266627956
 20
156.14191416147594
 11
148.41811721389359
 21
156.76958238756336
  0
LINE
  8
ADD_LINE
  6
DOT
 62
    7
 10
144.89801355310388
 20
161.37149295291385
 11
144.72027752850508
 21
161.94488525390625
  0
LINE
  8
_1-2_
  6
CONTINUOUS
 62
    3
 10
144.72027752850508
 20
161.94488525390625
 11
144.89801355310388
 21
161.37149295291385
  0
LINE
  8
_1-2_
  6
CONTINUOUS
 62
    3
 10
145.78656995618667
 20
158.50442010003169
 11
146.60661027238177
 21
156.13426827095651
  0
LINE
  8
_1-2_
  6
CONTINUOUS
 62
    3
 10
90.143044961465378
 20
138.40357187631969
 11
90.899443755278725
 21
138.66528897672086
  0
LINE
  8
_1-2_
  6
CONTINUOUS
 62
    3
 10
92.061718090160483
 20
139.91615914009714
 11
145.78656995618667
 21
158.50442010003169
  0
LINE
  8
_1-2_
  6
CONTINUOUS
 62
    3
 10
91.036946064717071
 20
138.22165411871833
 11
90.899443755278725
 21
138.66528897672086
  0
LINE
  8
_1-2_
  6
CONTINUOUS
 62
    3
 10
90.284407332136823
 20
137.94747842324747
 11
90.143044961465378
 21
138.40357187631969
  0
LINE
  8
_1-2_
  6
CONTINUOUS
 62
    3
 10
91.766126478040547
 20
138.2554172825169
 11
91.29339269689612
 21
138.09183481577281
  0
LINE
  8
_1-2_
  6
CONTINUOUS
 62
    3
 10
91.891776419974661
 20
138.50362416860222
 11
91.684793008340378
 21
139.17151373785896
  0
LINE
  8
_1-2_
  6
CONTINUOUS
 62
    3
 10
89.68597412109375
 20
137.53568907041807
 11
90.158757390202709
 21
137.69927153716216
  0
LINE
  8
_1-2_
  6
CONTINUOUS
 62
    3
 10
144.89801355310388
 20
161.37149295291385
 11
88.165926546663854
 21
141.74273516680745
  0
LINE
  8
_1-2_
  6
CONTINUOUS
 62
    3
 10
89.429552232896967
 20
137.66549600137247
 11
88.165926546663854
 21
141.74273516680745
  0
LINE
  8
_1-2_
  6
CONTINUOUS
 62
    3
 10
148.41811721389359
 20
156.76958238756336
 11
146.61136111697635
 21
162.59919037690034
  0
LINE
  8
_1-2_
  6
CONTINUOUS
 62
    7
 10
88.165926546663854
 20
141.74273516680745
 11
83.457493137668919
 21
155.35120783625422
  0
LINE
  8
ADD_LINE
  6
DOT
 62
    7
 10
146.99179984427789
 20
155.10354531777872
 11
146.87864561338682
 21
142.13641192461995
  0
LINE
  8
_1-0_
  6
CONTINUOUS
 62
    7
 10
142.61456463788008
 20
153.13380060969172
 11
141.15439750052789
 21
156.37865221178211
  0
LINE
  8
_1-0_
  6
CONTINUOUS
 62
    7
 10
142.61456463788008
 20
153.1337882377006
 11
141.15437275654563
 21
156.37863983979096
  0
LINE
  8
_1-0_
  6
CONTINUOUS
 62
    7
 10
141.15437275654563
 20
156.37863983979096
 11
145.48590582770271
 21
158.37343782991977
  0
LINE
  8
_1-0_
  6
CONTINUOUS
 62
    7
 10
141.15439750052789
 20
156.37865221178211
 11
146.99179984427789
 21
155.10354531777872
  0
LINE
  8
_1-0_
  6
CONTINUOUS
 62
    7
 10
192.93442184860643
 20
179.72544077280406
 11
194.41173656566724
 21
176.44250818201016
  0
LINE
  8
_1-0_
  6
CONTINUOUS
 62
    7
 10
194.41173656566724
 20
176.44250818201016
 11
190.03450135926943
 21
174.47276347392315
  0
LINE
  8
_1-0_
  6
CONTINUOUS
 62
    7
 10
192.93442184860643
 20
179.7254160288218
 11
194.41173656566724
 21
176.44250818201016
  0
LINE
  8
_1-2_
  6
CONTINUOUS
 62
    3
 10
194.02389938766893
 20
177.48086465371622
 11
195.83805393528294
 21
178.10854525179477
  0
LINE
  8
ADD_LINE
  6
DOT
 62
    7
 10
192.31795027449326
 20
182.71045581714529
 11
192.14021424989443
 21
183.28384811813768
  0
LINE
  8
_1-2_
  6
CONTINUOUS
 62
    3
 10
192.14021424989443
 20
183.28384811813768
 11
192.31795027449326
 21
182.71045581714529
  0
LINE
  8
_1-2_
  6
CONTINUOUS
 62
    3
 10
193.20650667757602
 20
179.84337059227198
 11
194.02654699377112
 21
177.47324350717906
  0
LINE
  8
_1-2_
  6
CONTINUOUS
 62
    3
 10
137.56298168285474
 20
159.74253474055109
 11
138.31935573268581
 21
160.00425184095229
  0
LINE
  8
_1-2_
  6
CONTINUOUS
 62
    3
 10
139.48167955553211
 20
161.25512200432857
 11
193.20650667757602
 21
179.84337059227198
  0
LINE
  8
_1-2_
  6
CONTINUOUS
 62
    3
 10
138.45688278610643
 20
159.56061698294977
 11
138.31935573268581
 21
160.00425184095229
  0
LINE
  8
_1-2_
  6
CONTINUOUS
 62
    3
 10
137.70431930954393
 20
159.28644128747891
 11
137.56298168285474
 21
159.74253474055109
  0
LINE
  8
_1-2_
  6
CONTINUOUS
 62
    3
 10
139.18608794341216
 20
159.59438014674831
 11
138.71332941828547
 21
159.43079768000422
  0
LINE
  8
_1-2_
  6
CONTINUOUS
 62
    3
 10
139.31171314136404
 20
159.84258703283362
 11
139.10472972972974
 21
160.51047660209039
  0
LINE
  8
_1-2_
  6
CONTINUOUS
 62
    3
 10
137.10591084248313
 20
158.87465193464951
 11
137.57866936760979
 21
159.03823440139359
  0
LINE
  8
_1-2_
  6
CONTINUOUS
 62
    3
 10
136.84946421030406
 20
159.00445886560388
 11
135.58583852407097
 21
163.08169803103885
  0
LINE
  8
_1-2_
  6
CONTINUOUS
 62
    3
 10
192.14021424989443
 20
183.28384811813768
 11
194.03129783836573
 21
183.93815324113177
  0
LINE
  8
_1-2_
  6
CONTINUOUS
 62
    3
 10
195.83805393528294
 20
178.10854525179477
 11
194.03129783836573
 21
183.93815324113177
  0
LINE
  8
_1-2_
  6
CONTINUOUS
 62
    7
 10
135.58583852407097
 20
163.08169803103885
 11
130.87745460304055
 21
176.69017070048565
  0
LINE
  8
_1-2_
  6
CONTINUOUS
 62
    7
 10
189.51905946473818
 20
196.97961755701016
 11
130.87745460304055
 21
176.69017070048565
  0
LINE
  8
_1-2_
  6
CONTINUOUS
 62
    7
 10
194.03129783836573
 20
183.93815324113177
 11
189.51905946473818
 21
196.97961755701016
  0
LINE
  8
_1-0_
  6
CONTINUOUS
 62
    7
 10
190.03450135926943
 20
174.47276347392315
 11
188.57433422191724
 21
177.71761507601352
  0
LINE
  8
_1-0_
  6
CONTINUOUS
 62
    7
 10
190.03450135926943
 20
174.47273872994089
 11
188.57430947793497
 21
177.71761507601352
  0
LINE
  8
_1-0_
  6
CONTINUOUS
 62
    7
 10
188.57433422191724
 20
177.71761507601352
 11
194.41173656566724
 21
176.44250818201016
  0
LINE
  8
_1-2_
  6
CONTINUOUS
 62
    7
 10
84.981524493243242
 20
150.9463830896326
 11
36.03759353225297
 21
134.01224497202281
  0
LINE
  8
_1-2_
  6
CONTINUOUS
 62
    7
 10
99.191449139569258
 20
141.26022751266893
 11
98.84451376425254
 21
142.26292790593328
  0
LINE
  8
_1-2_
  6
CONTINUOUS
 62
    3
 10
97.300365551097983
 20
140.60592238967484
 11
99.191473883551524
 21
141.26022751266893
  0
LINE
  8
ADD_LINE
  6
DOT
 62
    7
 10
100.9982052364865
 20
135.43061952333193
 11
99.191473883551524
 21
141.26022751266893
  0
LINE
  8
_1-2_
  6
CONTINUOUS
 62
    7
 10
97.300365551097983
 20
140.60592238967484
 11
96.986092232369089
 21
141.61994315482477
  0
LINE
  8
ADD_LINE
  6
DOT
 62
    7
 10
148.41811721389359
 20
156.76958238756336
 11
146.61138586095862
 21
162.59919037690034
  0
LINE
  8
_1-2_
  6
CONTINUOUS
 62
    3
 10
144.72027752850508
 20
161.94488525390625
 11
146.61138586095862
 21
162.59919037690034
  0
LINE
  8
_1-2_
  6
CONTINUOUS
 62
    7
 10
132.4014612146326
 20
172.28534595386404
 11
83.457493137668919
 21
155.35120783625422
  0
LINE
  8
_1-2_
  6
CONTINUOUS
 62
    7
 10
146.61136111697635
 20
162.59919037690034
 11
146.26442574165964
 21
163.60189077016472
  0
LINE
  8
_1-0_
  6
CONTINUOUS
 62
    7
 10
188.57430947793497
 20
177.71761507601352
 11
192.93434761665964
 21
179.72553974873313
  0
LINE
  8
_1-0_
  6
CONTINUOUS
 62
    7
 10
192.93434761665964
 20
179.72553974873313
 11
194.41171182168497
 21
176.44250818201016
  0
LINE
  8
_1-0_
  6
CONTINUOUS
 62
    7
 10
194.41171182168497
 20
176.44250818201016
 11
190.05669671135982
 21
174.4827600427576
  0
LINE
  8
_1-0_
  6
CONTINUOUS
 62
    7
 10
190.05669671135982
 20
174.4827600427576
 11
190.03447661528716
 21
174.47276347392315
  0
LINE
  8
_1-0_
  6
CONTINUOUS
 62
    7
 10
93.734460779138516
 20
135.03967697555956
 11
98.094548405827709
 21
137.04761402027029
  0
LINE
  8
ADD_LINE
  6
DOT
 62
    7
 10
98.094548405827709
 20
137.04761402027029
 11
108.55741758604309
 21
113.79675787848396
  0
LINE
  8
_1-3_
  6
CONTINUOUS
 62
    7
 10
74.27215576171875
 20
141.42857319599875
 11
64.12578685863599
 21
169.30545291385135
  0
LINE
  8
_1-3_
  6
CONTINUOUS
 62
    7
 10
64.12578685863599
 20
169.30545291385135
 11
62.851917163745782
 21
169.30545291385135
  0
LINE
  8
_1-0_
  6
CONTINUOUS
 62
    7
 10
26.702344739759297
 20
100.97328804634714
 11
190.0594185494088
 21
174.48397249788852
  0
LINE
  8
_1-2_
  6
CONTINUOUS
 62
    3
 10
26.702344739759297
 20
107.67476262273016
 11
50.976463524070937
 21
115.83688684411952
  0
LINE
  8
_1-2_
  6
CONTINUOUS
 62
    3
 10
50.112948031038854
 20
118.71159321552999
 11
26.702344739759297
 21
110.83982725401184
  0
LINE
  8
_1-2_
  6
CONTINUOUS
 62
    7
 10
37.67169849292651
 20
129.72050022434544
 11
26.702344739759297
 21
126.0320756242082
  0
LINE
  8
ADD_LINE
  6
DOT
 62
    7
 10
197.54670014252534
 20
181.17630417282518
 11
197.54670014252534
 21
149.43884359823693
  0
LINE
  8
ADD_LINE
  6
DOT
 62
    7
 10
197.54670014252534
 20
149.43884359823693
 11
197.54670014252534
 21
107.83705840239654
  0
LINE
  8
_1-0_
  6
CONTINUOUS
 62
    7
 10
26.702344739759297
 20
99.218754123997044
 11
197.54670014252534
 21
176.09871529244089
  0
LINE
  8
_1-0_
  6
CONTINUOUS
 62
    7
 10
26.702344739759297
 20
100.31534555796031
 11
197.54670014252534
 21
177.19529435441302
  0
LINE
  8
_1-0_
  6
CONTINUOUS
 62
    7
 10
190.0594185494088
 20
174.48397249788852
 11
197.54670014252534
 21
177.85323684279984
  0
LINE
  8
_1-0_
  6
CONTINUOUS
 62
    7
 10
347.31865960198479
 20
110.45587488122889
 11
348.79597431904563
 21
113.73879510003168
  0
LINE
  8
_1-0_
  6
CONTINUOUS
 62
    7
 10
348.79597431904563
 20
113.73879510003168
 11
344.41873911264781
 21
115.70853980811867
  0
LINE
  8
_1-0_
  6
CONTINUOUS
 62
    7
 10
344.41873911264781
 20
115.70853980811867
 11
342.94142439558703
 21
112.42561958931589
  0
LINE
  8
_1-0_
  6
CONTINUOUS
 62
    7
 10
342.94142439558703
 20
112.42561958931589
 11
347.31865960198479
 21
110.45587488122889
  0
LINE
  8
_1-0_
  6
CONTINUOUS
 62
    7
 10
348.79597431904563
 20
113.73879510003168
 11
342.94142439558703
 21
112.42561958931589
  0
LINE
  8
_1-0_
  6
CONTINUOUS
 62
    7
 10
296.99882713524073
 20
137.04750267235011
 11
295.5215124181799
 21
133.76458245354729
  0
LINE
  8
_1-0_
  6
CONTINUOUS
 62
    7
 10
295.5215124181799
 20
133.76458245354729
 11
299.89874762457771
 21
131.79483774546031
  0
LINE
  8
_1-0_
  6
CONTINUOUS
 62
    7
 10
249.57891515783362
 20
158.38646553658151
 11
248.10160044077281
 21
155.10354531777872
  0
LINE
  8
_1-0_
  6
CONTINUOUS
 62
    7
 10
248.10160044077281
 20
155.10354531777872
 11
252.47883564717063
 21
153.13380060969172
  0
LINE
  8
_1-2_
  6
CONTINUOUS
 62
    3
 10
343.32018053209464
 20
113.46732887061867
 11
341.50063179634714
 21
114.0791485760663
  0
LINE
  8
ADD_LINE
  6
DOT
 62
    7
 10
344.98045225401182
 20
118.71159321552999
 11
345.15314050622891
 21
119.28651964342272
  0
LINE
  8
_1-2_
  6
CONTINUOUS
 62
    3
 10
345.15314050622891
 20
119.28651964342272
 11
344.98045225401182
 21
118.71159321552999
  0
LINE
  8
_1-2_
  6
CONTINUOUS
 62
    3
 10
344.11693676097974
 20
115.83688684411952
 11
343.31760715793922
 21
113.45967060810811
  0
LINE
  8
_1-2_
  6
CONTINUOUS
 62
    3
 10
345.15314050622891
 20
119.28651964342272
 11
343.2564400337838
 21
119.92429578626479
  0
LINE
  8
_1-2_
  6
CONTINUOUS
 62
    3
 10
341.50063179634714
 20
114.0791485760663
 11
343.2564400337838
 21
119.92429578626479
  0
LINE
  8
_1-0_
  6
CONTINUOUS
 62
    7
 10
296.99882713524073
 20
137.04749030035896
 11
295.5215124181799
 21
133.76457008155617
  0
LINE
  8
_1-0_
  6
CONTINUOUS
 62
    7
 10
295.5215124181799
 20
133.76457008155617
 11
299.89874762457771
 21
131.79482537346917
  0
LINE
  8
_1-2_
  6
CONTINUOUS
 62
    3
 10
295.90934959617823
 20
134.8029512972445
 11
294.09519504856422
 21
135.43061952333193
  0
LINE
  8
ADD_LINE
  6
DOT
 62
    7
 10
297.61529870935391
 20
140.03253008868245
 11
297.79303473395271
 21
140.60592238967484
  0
LINE
  8
_1-2_
  6
CONTINUOUS
 62
    3
 10
297.79303473395271
 20
140.60592238967484
 11
297.61529870935391
 21
140.03253008868245
  0
LINE
  8
_1-2_
  6
CONTINUOUS
 62
    3
 10
296.72674230627115
 20
137.16545723580026
 11
295.90670199007604
 21
134.79530540672511
  0
LINE
  8
_1-2_
  6
CONTINUOUS
 62
    3
 10
352.3702673009924
 20
117.06460901208827
 11
351.61386850717906
 21
117.32632611248945
  0
LINE
  8
_1-2_
  6
CONTINUOUS
 62
    3
 10
350.45159417229729
 20
118.57719627586572
 11
296.72674230627115
 21
137.16545723580026
  0
LINE
  8
_1-2_
  6
CONTINUOUS
 62
    3
 10
351.47636619774073
 20
116.88269125448691
 11
351.61386850717906
 21
117.32632611248945
  0
LINE
  8
_1-2_
  6
CONTINUOUS
 62
    3
 10
352.22890493032099
 20
116.60851555901606
 11
352.3702673009924
 21
117.06460901208827
  0
LINE
  8
_1-2_
  6
CONTINUOUS
 62
    3
 10
350.74718578441724
 20
116.91645441828548
 11
351.21991956556167
 21
116.75287195154139
  0
LINE
  8
_1-2_
  6
CONTINUOUS
 62
    3
 10
350.62153584248313
 20
117.16466130437078
 11
350.8285192541174
 21
117.83255087362754
  0
LINE
  8
_1-2_
  6
CONTINUOUS
 62
    3
 10
352.82733814136407
 20
116.19672620618667
 11
352.35455487225511
 21
116.36030867293076
  0
LINE
  8
_1-2_
  6
CONTINUOUS
 62
    3
 10
297.61529870935391
 20
140.03253008868245
 11
354.34738571579396
 21
120.40377230257602
  0
LINE
  8
_1-2_
  6
CONTINUOUS
 62
    3
 10
353.08376002956084
 20
116.32653313714106
 11
354.34738571579396
 21
120.40377230257602
  0
LINE
  8
_1-2_
  6
CONTINUOUS
 62
    3
 10
294.09519504856422
 20
135.43061952333193
 11
295.90195114548146
 21
141.26022751266893
  0
LINE
  8
_1-2_
  6
CONTINUOUS
 62
    7
 10
354.34738571579396
 20
120.40377230257602
 11
359.05581912478885
 21
134.01224497202281
  0
LINE
  8
_1-0_
  6
CONTINUOUS
 62
    7
 10
299.89874762457771
 20
131.79483774546031
 11
301.3589147619299
 21
135.03968934755068
  0
LINE
  8
_1-0_
  6
CONTINUOUS
 62
    7
 10
299.89874762457771
 20
131.79482537346917
 11
301.35893950591219
 21
135.03967697555956
  0
LINE
  8
_1-0_
  6
CONTINUOUS
 62
    7
 10
301.3589147619299
 20
135.03968934755068
 11
295.5215124181799
 21
133.76458245354729
  0
LINE
  8
_1-2_
  6
CONTINUOUS
 62
    7
 10
343.2564400337838
 20
119.92429578626479
 11
343.60050510715797
 21
120.94759554476352
  0
LINE
  8
_1-0_
  6
CONTINUOUS
 62
    7
 10
345.15314050622891
 20
119.28651964342272
 11
345.45895138302365
 21
120.30459842166385
  0
LINE
  8
_1-0_
  6
CONTINUOUS
 62
    7
 10
249.57891515783362
 20
158.38646553658151
 11
248.10160044077281
 21
155.10354531777872
  0
LINE
  8
_1-0_
  6
CONTINUOUS
 62
    7
 10
248.10160044077281
 20
155.10354531777872
 11
252.47883564717063
 21
153.13380060969172
  0
LINE
  8
_1-0_
  6
CONTINUOUS
 62
    7
 10
249.57891515783362
 20
158.38645316459039
 11
248.10160044077281
 21
155.10353294578761
  0
LINE
  8
_1-0_
  6
CONTINUOUS
 62
    7
 10
248.10160044077281
 20
155.10353294578761
 11
252.47883564717063
 21
153.1337882377006
  0
LINE
  8
_1-2_
  6
CONTINUOUS
 62
    3
 10
248.48943761877112
 20
156.14191416147594
 11
246.67528307115711
 21
156.76958238756336
  0
LINE
  8
ADD_LINE
  6
DOT
 62
    7
 10
250.1953867319468
 20
161.37149295291385
 11
250.37312275654563
 21
161.94488525390625
  0
LINE
  8
_1-2_
  6
CONTINUOUS
 62
    3
 10
250.37312275654563
 20
161.94488525390625
 11
250.1953867319468
 21
161.37149295291385
  0
LINE
  8
_1-2_
  6
CONTINUOUS
 62
    3
 10
249.30683032886404
 20
158.50442010003169
 11
248.48679001266893
 21
156.13426827095651
  0
LINE
  8
_1-2_
  6
CONTINUOUS
 62
    3
 10
304.95035532358531
 20
138.40357187631969
 11
304.19395652977198
 21
138.66528897672086
  0
LINE
  8
_1-2_
  6
CONTINUOUS
 62
    3
 10
303.03168219489021
 20
139.91615914009714
 11
249.30683032886404
 21
158.50442010003169
  0
LINE
  8
_1-2_
  6
CONTINUOUS
 62
    3
 10
304.05645422033365
 20
138.22165411871833
 11
304.19395652977198
 21
138.66528897672086
  0
LINE
  8
_1-2_
  6
CONTINUOUS
 62
    3
 10
304.80899295291385
 20
137.94747842324747
 11
304.95035532358531
 21
138.40357187631969
  0
LINE
  8
_1-2_
  6
CONTINUOUS
 62
    3
 10
303.32727380701016
 20
138.2554172825169
 11
303.80000758815459
 21
138.09183481577281
  0
LINE
  8
_1-2_
  6
CONTINUOUS
 62
    3
 10
303.20162386507604
 20
138.50362416860222
 11
303.40860727671031
 21
139.17151373785896
  0
LINE
  8
_1-2_
  6
CONTINUOUS
 62
    3
 10
305.40742616395693
 20
137.53568907041807
 11
304.93464289484797
 21
137.69927153716216
  0
LINE
  8
_1-2_
  6
CONTINUOUS
 62
    3
 10
250.1953867319468
 20
161.37149295291385
 11
306.92747373838682
 21
141.74273516680745
  0
LINE
  8
_1-2_
  6
CONTINUOUS
 62
    3
 10
305.66384805215375
 20
137.66549600137247
 11
306.92747373838682
 21
141.74273516680745
  0
LINE
  8
_1-2_
  6
CONTINUOUS
 62
    3
 10
246.67528307115711
 20
156.76958238756336
 11
248.48203916807435
 21
162.59919037690034
  0
LINE
  8
_1-2_
  6
CONTINUOUS
 62
    7
 10
306.92747373838682
 20
141.74273516680745
 11
311.63590714738177
 21
155.35120783625422
  0
LINE
  8
_1-0_
  6
CONTINUOUS
 62
    7
 10
252.47883564717063
 20
153.13380060969172
 11
253.93900278452281
 21
156.37865221178211
  0
LINE
  8
_1-0_
  6
CONTINUOUS
 62
    7
 10
252.47883564717063
 20
153.1337882377006
 11
253.93902752850508
 21
156.37863983979096
  0
LINE
  8
_1-0_
  6
CONTINUOUS
 62
    7
 10
253.93902752850508
 20
156.37863983979096
 11
249.607494457348
 21
158.37343782991977
  0
LINE
  8
_1-0_
  6
CONTINUOUS
 62
    7
 10
253.93900278452281
 20
156.37865221178211
 11
248.10160044077281
 21
155.10354531777872
  0
LINE
  8
_1-0_
  6
CONTINUOUS
 62
    7
 10
202.15897843644427
 20
179.72544077280406
 11
200.68166371938347
 21
176.44250818201016
  0
LINE
  8
_1-0_
  6
CONTINUOUS
 62
    7
 10
200.68166371938347
 20
176.44250818201016
 11
205.05889892578125
 21
174.47276347392315
  0
LINE
  8
_1-0_
  6
CONTINUOUS
 62
    7
 10
202.15897843644427
 20
179.7254160288218
 11
200.68166371938347
 21
176.44250818201016
  0
LINE
  8
_1-2_
  6
CONTINUOUS
 62
    3
 10
202.89337983002534
 20
183.30339586412586
 11
202.72069157780828
 21
182.72846943623313
  0
LINE
  8
_1-2_
  6
CONTINUOUS
 62
    3
 10
201.06950089738177
 20
177.48086465371622
 11
199.25534634976773
 21
178.10854525179477
  0
LINE
  8
ADD_LINE
  6
DOT
 62
    7
 10
202.77545001055745
 20
182.71045581714529
 11
202.95318603515625
 21
183.28384811813768
  0
LINE
  8
_1-2_
  6
CONTINUOUS
 62
    3
 10
202.95318603515625
 20
183.28384811813768
 11
202.77545001055745
 21
182.71045581714529
  0
LINE
  8
_1-2_
  6
CONTINUOUS
 62
    3
 10
201.88689360747466
 20
179.84337059227198
 11
201.06685329127959
 21
177.47324350717906
  0
LINE
  8
_1-2_
  6
CONTINUOUS
 62
    3
 10
257.53041860219594
 20
159.74253474055109
 11
256.7740445523649
 21
160.00425184095229
  0
LINE
  8
_1-2_
  6
CONTINUOUS
 62
    3
 10
255.61172072951859
 20
161.25512200432857
 11
201.88689360747466
 21
179.84337059227198
  0
LINE
  8
_1-2_
  6
CONTINUOUS
 62
    3
 10
256.63651749894427
 20
159.56061698294977
 11
256.7740445523649
 21
160.00425184095229
  0
LINE
  8
_1-2_
  6
CONTINUOUS
 62
    3
 10
257.38908097550677
 20
159.28644128747891
 11
257.53041860219594
 21
159.74253474055109
  0
LINE
  8
_1-2_
  6
CONTINUOUS
 62
    3
 10
255.90731234163852
 20
159.59438014674831
 11
256.38007086676521
 21
159.43079768000422
  0
LINE
  8
_1-2_
  6
CONTINUOUS
 62
    3
 10
255.78168714368667
 20
159.84258703283362
 11
255.98867055532097
 21
160.51047660209039
  0
LINE
  8
_1-2_
  6
CONTINUOUS
 62
    3
 10
257.98748944256761
 20
158.87465193464951
 11
257.51473091744089
 21
159.03823440139359
  0
LINE
  8
_1-2_
  6
CONTINUOUS
 62
    3
 10
202.77545001055745
 20
182.71045581714529
 11
259.50756176097974
 21
163.08169803103885
  0
LINE
  8
_1-2_
  6
CONTINUOUS
 62
    3
 10
258.24393607474661
 20
159.00445886560388
 11
259.50756176097974
 21
163.08169803103885
  0
LINE
  8
_1-2_
  6
CONTINUOUS
 62
    3
 10
202.95318603515625
 20
183.28384811813768
 11
201.06210244668497
 21
183.93815324113177
  0
LINE
  8
_1-2_
  6
CONTINUOUS
 62
    3
 10
199.25534634976773
 20
178.10854525179477
 11
201.06210244668497
 21
183.93815324113177
  0
LINE
  8
_1-2_
  6
CONTINUOUS
 62
    7
 10
259.50756176097974
 20
163.08169803103885
 11
264.21594568201016
 21
176.69017070048565
  0
LINE
  8
_1-2_
  6
CONTINUOUS
 62
    7
 10
205.5743408203125
 20
196.97961755701016
 11
264.21594568201016
 21
176.69017070048565
  0
LINE
  8
_1-2_
  6
CONTINUOUS
 62
    7
 10
201.06210244668497
 20
183.93815324113177
 11
205.5743408203125
 21
196.97961755701016
  0
LINE
  8
_1-0_
  6
CONTINUOUS
 62
    7
 10
205.05889892578125
 20
174.47276347392315
 11
206.51906606313347
 21
177.71761507601352
  0
LINE
  8
_1-0_
  6
CONTINUOUS
 62
    7
 10
205.05889892578125
 20
174.47273872994089
 11
206.51909080711573
 21
177.71761507601352
  0
LINE
  8
_1-0_
  6
CONTINUOUS
 62
    7
 10
206.51906606313347
 20
177.71761507601352
 11
200.68166371938347
 21
176.44250818201016
  0
LINE
  8
_1-2_
  6
CONTINUOUS
 62
    7
 10
310.11187579180745
 20
150.9463830896326
 11
359.05581912478885
 21
134.01224497202281
  0
LINE
  8
_1-2_
  6
CONTINUOUS
 62
    7
 10
295.90195114548146
 20
141.26022751266893
 11
296.24888652079818
 21
142.26292790593328
  0
LINE
  8
_1-2_
  6
CONTINUOUS
 62
    3
 10
297.79303473395271
 20
140.60592238967484
 11
295.90192640149917
 21
141.26022751266893
  0
LINE
  8
ADD_LINE
  6
DOT
 62
    7
 10
294.09519504856422
 20
135.43061952333193
 11
295.90192640149917
 21
141.26022751266893
  0
LINE
  8
_1-2_
  6
CONTINUOUS
 62
    7
 10
297.79303473395271
 20
140.60592238967484
 11
298.10730805268162
 21
141.61994315482477
  0
LINE
  8
ADD_LINE
  6
DOT
 62
    7
 10
246.67528307115711
 20
156.76958238756336
 11
248.48201442409209
 21
162.59919037690034
  0
LINE
  8
_1-2_
  6
CONTINUOUS
 62
    3
 10
250.37312275654563
 20
161.94488525390625
 11
248.48201442409209
 21
162.59919037690034
  0
LINE
  8
_1-2_
  6
CONTINUOUS
 62
    7
 10
262.69193907041807
 20
172.28534595386404
 11
311.63590714738177
 21
155.35120783625422
  0
LINE
  8
_1-2_
  6
CONTINUOUS
 62
    7
 10
248.48203916807435
 20
162.59919037690034
 11
248.82897454339107
 21
163.60189077016472
  0
LINE
  8
_1-0_
  6
CONTINUOUS
 62
    7
 10
206.51909080711573
 20
177.71761507601352
 11
202.15905266839107
 21
179.72553974873313
  0
LINE
  8
_1-0_
  6
CONTINUOUS
 62
    7
 10
202.15905266839107
 20
179.72553974873313
 11
200.68168846336573
 21
176.44250818201016
  0
LINE
  8
_1-0_
  6
CONTINUOUS
 62
    7
 10
200.68168846336573
 20
176.44250818201016
 11
205.03670357369089
 21
174.4827600427576
  0
LINE
  8
_1-0_
  6
CONTINUOUS
 62
    7
 10
205.03670357369089
 20
174.4827600427576
 11
205.05892366976352
 21
174.47276347392315
  0
LINE
  8
_1-0_
  6
CONTINUOUS
 62
    7
 10
301.35893950591219
 20
135.03967697555956
 11
296.99885187922297
 21
137.04761402027029
  0
LINE
  8
_1-3_
  6
CONTINUOUS
 62
    7
 10
320.82124452333193
 20
141.42857319599875
 11
330.96761342641469
 21
169.30545291385135
  0
LINE
  8
_1-3_
  6
CONTINUOUS
 62
    7
 10
330.96761342641469
 20
169.30545291385135
 11
332.2414831213049
 21
169.30545291385135
  0
LINE
  8
_1-0_
  6
CONTINUOUS
 62
    7
 10
368.39105554529141
 20
100.97328804634714
 11
205.0339817356419
 21
174.48397249788852
  0
LINE
  8
_1-2_
  6
CONTINUOUS
 62
    3
 10
368.39105554529141
 20
107.67476262273016
 11
344.11693676097974
 21
115.83688684411952
  0
LINE
  8
_1-2_
  6
CONTINUOUS
 62
    3
 10
344.98045225401182
 20
118.71159321552999
 11
368.39105554529141
 21
110.83982725401184
  0
LINE
  8
_1-2_
  6
CONTINUOUS
 62
    7
 10
357.42170179212417
 20
129.72050022434544
 11
368.39105554529141
 21
126.0320756242082
  0
LINE
  8
_1-0_
  6
CONTINUOUS
 62
    7
 10
368.39105554529141
 20
99.218754123997044
 11
197.54670014252534
 21
176.09871529244089
  0
LINE
  8
_1-0_
  6
CONTINUOUS
 62
    7
 10
368.39105554529141
 20
100.31534555796031
 11
197.54670014252534
 21
177.19529435441302
  0
LINE
  8
_1-0_
  6
CONTINUOUS
 62
    7
 10
205.0339817356419
 20
174.48397249788852
 11
197.54670014252534
 21
177.85323684279984
  0
LINE
  8
_1-1_
  6
CONTINUOUS
 62
    7
 10
216.62574561866555
 20
193.1140879038218
 11
224.48621595228042
 21
192.1141340925887
  0
LINE
  8
_1-1_
  6
CONTINUOUS
 62
    7
 10
170.48622337547511
 20
192.11408460462417
 11
178.34670608108109
 21
193.1140879038218
  0
LINE
  8
_1-1_
  6
CONTINUOUS
 62
    2
 10
197.54670014252534
 20
215.11403676625847
 11
197.80027647276182
 21
214.98071618982266
  0
LINE
  8
_1-1_
  6
CONTINUOUS
 62
    2
 10
197.80027647276182
 20
214.98071618982266
 11
198.12584541939401
 21
215.3062727644637
  0
LINE
  8
_1-1_
  6
CONTINUOUS
 62
    2
 10
198.12584541939401
 20
215.3062727644637
 11
198.45142673801732
 21
215.46906342377534
  0
LINE
  8
_1-1_
  6
CONTINUOUS
 62
    2
 10
198.45142673801732
 20
215.46906342377534
 11
198.77699568464951
 21
215.63185408308701
  0
LINE
  8
_1-1_
  6
CONTINUOUS
 62
    2
 10
198.77699568464951
 20
215.63185408308701
 11
198.45142673801732
 21
215.63185408308701
  0
LINE
  8
_1-1_
  6
CONTINUOUS
 62
    2
 10
198.45142673801732
 20
215.63185408308701
 11
198.12584541939401
 21
215.71326178473396
  0
LINE
  8
_1-1_
  6
CONTINUOUS
 62
    2
 10
198.12584541939401
 20
215.71326178473396
 11
197.80027647276182
 21
215.63185408308701
  0
LINE
  8
_1-1_
  6
CONTINUOUS
 62
    2
 10
197.80027647276182
 20
215.63185408308701
 11
197.47469515413852
 21
215.38768046611065
  0
LINE
  8
_1-1_
  6
CONTINUOUS
 62
    2
 10
197.47469515413852
 20
215.38768046611065
 11
197.47469515413852
 21
214.98071618982266
  0
LINE
  8
_1-1_
  6
CONTINUOUS
 62
    2
 10
197.47469515413852
 20
214.98071618982266
 11
197.54670014252534
 21
215.11403676625847
  0
LINE
  8
_1-1_
  6
CONTINUOUS
 62
    2
 10
197.47469515413852
 20
215.114086254223
 11
197.06771850585937
 21
215.46906342377534
  0
LINE
  8
_1-1_
  6
CONTINUOUS
 62
    2
 10
197.06771850585937
 20
215.46906342377534
 11
196.74214955922722
 21
215.63185408308701
  0
LINE
  8
_1-1_
  6
CONTINUOUS
 62
    2
 10
196.74214955922722
 20
215.63185408308701
 11
196.41656824060391
 21
215.71326178473396
  0
LINE
  8
_1-1_
  6
CONTINUOUS
 62
    2
 10
196.41656824060391
 20
215.71326178473396
 11
196.09099929397172
 21
215.79464474239867
  0
LINE
  8
_1-1_
  6
CONTINUOUS
 62
    2
 10
196.09099929397172
 20
215.79464474239867
 11
195.76541797534841
 21
215.79464474239867
  0
LINE
  8
_1-1_
  6
CONTINUOUS
 62
    2
 10
195.76541797534841
 20
215.79464474239867
 11
196.09099929397172
 21
215.63185408308701
  0
LINE
  8
_1-1_
  6
CONTINUOUS
 62
    2
 10
196.09099929397172
 20
215.63185408308701
 11
196.49796357025971
 21
215.55047112542232
  0
LINE
  8
_1-1_
  6
CONTINUOUS
 62
    2
 10
196.49796357025971
 20
215.55047112542232
 11
196.82354488888302
 21
215.38768046611065
  0
LINE
  8
_1-1_
  6
CONTINUOUS
 62
    2
 10
196.82354488888302
 20
215.38768046611065
 11
197.23050916517104
 21
215.14348210515203
  0
LINE
  8
_1-1_
  6
CONTINUOUS
 62
    2
 10
197.23050916517104
 20
215.14348210515203
 11
197.47469515413852
 21
215.114086254223
  0
LINE
  8
_1-1_
  6
CONTINUOUS
 62
    7
 10
188.59021985853042
 20
211.4682336755701
 11
176.87583717139992
 21
243.65325102934969
  0
LINE
  8
_1-1_
  6
CONTINUOUS
 62
    7
 10
152.33225642023859
 20
225.61592720650339
 11
167.65030319626268
 21
183.52995176573057
  0
LINE
  8
_1-1_
  6
CONTINUOUS
 62
    7
 10
167.65030319626268
 20
183.52995176573057
 11
185.44714025548987
 21
188.05879335145693
  0
LINE
  8
_1-1_
  6
CONTINUOUS
 62
    7
 10
209.22274202913852
 20
241.4811995222762
 11
215.67567567567568
 21
241.4811995222762
  0
LINE
  8
_1-1_
  6
CONTINUOUS
 62
    7
 10
176.87583717139992
 20
243.65325102934969
 11
171.08108108108109
 21
243.65325102934969
  0
LINE
  8
_1-1_
  6
CONTINUOUS
 62
    7
 10
152.33225642023859
 20
225.61592720650339
 11
146.75675675675677
 21
225.61592720650339
  0
LINE
  8
_1-1_
  6
CONTINUOUS
 62
    3
 10
196.6466996476457
 20
203.92889074377112
 11
198.446700637405
 21
203.92889074377112
  0
LINE
  8
_1-1_
  6
CONTINUOUS
 62
    3
 10
196.6466996476457
 20
203.92889074377112
 11
196.6466996476457
 21
177.44823971310177
  0
LINE
  8
_1-1_
  6
CONTINUOUS
 62
    3
 10
198.446700637405
 20
203.92889074377112
 11
198.446700637405
 21
177.44823971310177
  0
LINE
  8
_1-1_
  6
DASHED1
 62
    3
 10
203.88445055162586
 20
156.7501212455131
 11
203.88445055162586
 21
154.9501202557538
  0
LINE
  8
_1-1_
  6
DASHED1
 62
    3
 10
197.2467041015625
 20
154.9501202557538
 11
203.88445055162586
 21
154.9501202557538
  0
LINE
  8
_1-1_
  6
DASHED1
 62
    3
 10
196.6466996476457
 20
155.55012470967063
 11
196.6466996476457
 21
177.44823971310177
  0
LINE
  8
_1-1_
  6
DASHED1
 62
    3
 10
199.0467050913218
 20
156.7501212455131
 11
203.88445055162586
 21
156.7501212455131
  0
LINE
  8
_1-1_
  6
DASHED1
 62
    3
 10
198.446700637405
 20
157.3501256994299
 11
198.446700637405
 21
177.44823971310177
  0
LINE
  8
_1-1_
  6
CONTINUOUS
 62
    2
 10
197.47469515413852
 20
215.114086254223
 11
198.446700637405
 21
202.06265011349242
  0
LINE
  8
_1-1_
  6
CONTINUOUS
 62
    2
 10
197.48342977987755
 20
214.99687401024073
 11
200.22694355732688
 21
201.77656019056167
  0
LINE
  8
_1-1_
  6
CONTINUOUS
 62
    7
 10
197.84010191221495
 20
210.20765149915542
 11
209.22274202913852
 21
241.4811995222762
  0
LINE
  8
_1-3_
  6
CONTINUOUS
 62
    7
 10
199.65355125633448
 20
202.0155499432538
 11
210.38857949746622
 21
231.50977057379646
  0
LINE
  8
_1-3_
  6
CONTINUOUS
 62
    7
 10
198.03818986222552
 20
190.43880565746412
 11
210.92525172877959
 21
225.8457493137669
  0
LINE
  8
_1-3_
  6
CONTINUOUS
 62
    7
 10
210.38857949746622
 20
231.50977057379646
 11
214.99947212837839
 21
231.50977057379646
  0
LINE
  8
_1-3_
  6
CONTINUOUS
 62
    7
 10
210.92525172877959
 20
225.8457493137669
 11
214.46101833034209
 21
225.8457493137669
  0
LINE
  8
_1-0_
  6
CONTINUOUS
 62
    7
 10
332.2414831213049
 20
169.30545291385135
 11
335.35635458456505
 21
169.30545291385135
  0
LINE
  8
_1-0_
  6
CONTINUOUS
 62
    7
 10
62.851917163745782
 20
169.30545291385135
 11
60.262966671505495
 21
169.30545291385135
  0
LINE
  8
_1-0_
  6
CONTINUOUS
 62
    7
 10
28.343804849160676
 20
88.991552816854949
 11
197.54671251451649
 21
165.13285044077281
  0
LINE
  8
_1-0_
  6
CONTINUOUS
 62
    7
 10
366.74958924989443
 20
88.991546630859375
 11
197.54671251451649
 21
165.13285044077281
  0
LINE
  8
_1-0_
  6
CONTINUOUS
 62
    7
 10
28.343804849160676
 20
62.673500679634714
 11
197.54668777053422
 21
138.81481686153927
  0
LINE
  8
_1-0_
  6
CONTINUOUS
 62
    7
 10
366.74958924989443
 20
62.673500679634714
 11
197.54668777053422
 21
138.81481686153927
  0
LINE
  8
_1-3_
  6
CONTINUOUS
 62
    7
 10
126.20174511058912
 20
133.02762005780195
 11
78.350755846178231
 21
85.176630793391055
  0
LINE
  8
_1-3_
  6
CONTINUOUS
 62
    7
 10
117.9736039445207
 20
129.32495529587206
 11
70.122620866105365
 21
81.473972217456719
  0
LINE
  8
_1-3_
  6
CONTINUOUS
 62
    7
 10
122.08767452755491
 20
131.17628767683701
 11
74.236685263144011
 21
83.325298412426108
  0
LINE
  8
_1-3_
  6
CONTINUOUS
 62
    7
 10
235.02455427839951
 20
148.267822265625
 11
216.87419994457349
 21
130.11744318781672
  0
LINE
  8
_1-3_
  6
CONTINUOUS
 62
    7
 10
238.14558699324326
 20
146.86335383234797
 11
219.99523265941724
 21
128.71297475453972
  0
LINE
  8
_1-3_
  6
CONTINUOUS
 62
    7
 10
236.58505826383026
 20
147.56558804898648
 11
218.43470393000425
 21
129.4152089711782
  0
LINE
  8
_1-3_
  6
CONTINUOUS
 62
    7
 10
323.3749967008024
 20
108.51011946394638
 11
305.22461762299412
 21
90.3597403861381
  0
LINE
  8
_1-3_
  6
CONTINUOUS
 62
    7
 10
324.93547594225089
 20
107.807897619299
 11
306.78509686444261
 21
89.657518541490717
  0
LINE
  8
_1-3_
  6
CONTINUOUS
 62
    7
 10
326.49600467166385
 20
107.10566340266048
 11
308.34562559385557
 21
88.955284324852201
  0
LINE
  8
_1-2_
  6
CONTINUOUS
 62
    3
 10
192.31795027449326
 20
182.71045581714529
 11
135.58583852407097
 21
163.08169803103885
  0
ARC
  8
_1-2_
  6
CONTINUOUS
 62
    3
 10
44.837988776129635
 20
118.01017555030617
 40
0.599999959404404
 50
109.0858917236328
 51
197.21983337402344
  0
ARC
  8
_1-2_
  6
CONTINUOUS
 62
    3
 10
43.808094746357682
 20
116.94187886006124
 40
0.1999999904954755
 50
197.21757507324216
 51
289.0885009765625
  0
ARC
  8
_1-2_
  6
CONTINUOUS
 62
    3
 10
42.673422323690886
 20
116.54930320945947
 40
0.1999999904954755
 50
289.08401489257812
 51
17.217575073242223
  0
ARC
  8
_1-2_
  6
CONTINUOUS
 62
    3
 10
44.28081615551099
 20
117.10544895481419
 40
0.1999999904954755
 50
289.0885009765625
 51
17.219955444335916
  0
ARC
  8
_1-2_
  6
CONTINUOUS
 62
    3
 10
42.200663798564193
 20
116.38574548669764
 40
0.1999999904954755
 50
197.216552734375
 51
289.08514404296875
  0
ARC
  8
_1-2_
  6
CONTINUOUS
 62
    3
 10
92.257888381545612
 20
139.34913841453761
 40
0.599999959404404
 50
109.0858917236328
 51
197.21983337402344
  0
ARC
  8
_1-2_
  6
CONTINUOUS
 62
    3
 10
91.22799435177366
 20
138.28084172429266
 40
0.1999999904954755
 50
197.21757507324216
 51
289.0885009765625
  0
ARC
  8
_1-2_
  6
CONTINUOUS
 62
    3
 10
90.093334301097983
 20
137.88826607369089
 40
0.1999999904954755
 50
289.08401489257812
 51
17.217575073242223
  0
ARC
  8
_1-2_
  6
CONTINUOUS
 62
    3
 10
91.700728132918073
 20
138.44441181904563
 40
0.1999999904954755
 50
289.0885009765625
 51
17.219955444335916
  0
ARC
  8
_1-2_
  6
CONTINUOUS
 62
    3
 10
89.62057577597129
 20
137.72470835092906
 40
0.1999999904954755
 50
197.216552734375
 51
289.08514404296875
  0
ARC
  8
_1-2_
  6
CONTINUOUS
 62
    3
 10
139.67784984691724
 20
160.68810127876901
 40
0.599999959404404
 50
109.0858917236328
 51
197.21983337402344
  0
ARC
  8
_1-2_
  6
CONTINUOUS
 62
    3
 10
138.64795581714529
 20
159.61980458852409
 40
0.1999999904954755
 50
197.21757507324216
 51
289.0885009765625
  0
ARC
  8
_1-2_
  6
CONTINUOUS
 62
    3
 10
137.51327102248734
 20
159.22722893792232
 40
0.1999999904954755
 50
289.08401489257812
 51
17.217575073242223
  0
ARC
  8
_1-2_
  6
CONTINUOUS
 62
    3
 10
139.12066485430745
 20
159.78337468327703
 40
0.1999999904954755
 50
289.0885009765625
 51
17.219955444335916
  0
ARC
  8
_1-2_
  6
CONTINUOUS
 62
    3
 10
137.04051249736065
 20
159.06367121516047
 40
0.1999999904954755
 50
197.216552734375
 51
289.08514404296875
  0
ARC
  8
_1-2_
  6
CONTINUOUS
 62
    3
 10
350.25542388091219
 20
118.01017555030617
 40
0.599999959404404
 50
342.78041076660162
 51
70.914352416992244
  0
ARC
  8
_1-2_
  6
CONTINUOUS
 62
    3
 10
351.28531791068411
 20
116.94187886006124
 40
0.1999999904954755
 50
250.91174316406253
 51
342.78266906738287
  0
ARC
  8
_1-2_
  6
CONTINUOUS
 62
    3
 10
352.41997796135979
 20
116.54930320945947
 40
0.1999999904954755
 50
162.78266906738281
 51
250.91622924804693
  0
ARC
  8
_1-2_
  6
CONTINUOUS
 62
    3
 10
350.81258412953974
 20
117.10544895481419
 40
0.1999999904954755
 50
162.78028869628909
 51
250.91174316406253
  0
ARC
  8
_1-2_
  6
CONTINUOUS
 62
    3
 10
352.89273648648651
 20
116.38574548669764
 40
0.1999999904954755
 50
250.91510009765628
 51
342.78369140625
  0
ARC
  8
_1-2_
  6
CONTINUOUS
 62
    3
 10
302.83551190350511
 20
139.34913841453761
 40
0.599999959404404
 50
342.78041076660162
 51
70.914352416992244
  0
ARC
  8
_1-2_
  6
CONTINUOUS
 62
    3
 10
303.86540593327703
 20
138.28084172429266
 40
0.1999999904954755
 50
250.91174316406253
 51
342.78266906738287
  0
ARC
  8
_1-2_
  6
CONTINUOUS
 62
    3
 10
305.00006598395271
 20
137.88826607369089
 40
0.1999999904954755
 50
162.78266906738281
 51
250.91622924804693
  0
ARC
  8
_1-2_
  6
CONTINUOUS
 62
    3
 10
303.3926721521326
 20
138.44441181904563
 40
0.1999999904954755
 50
162.78028869628909
 51
250.91174316406253
  0
ARC
  8
_1-2_
  6
CONTINUOUS
 62
    3
 10
305.47282450907943
 20
137.72470835092906
 40
0.1999999904954755
 50
250.91510009765628
 51
342.78369140625
  0
ARC
  8
_1-2_
  6
CONTINUOUS
 62
    3
 10
255.41555043813347
 20
160.68810127876901
 40
0.599999959404404
 50
342.78041076660162
 51
70.914352416992244
  0
ARC
  8
_1-2_
  6
CONTINUOUS
 62
    3
 10
256.44544446790542
 20
159.61980458852409
 40
0.1999999904954755
 50
250.91174316406253
 51
342.78266906738287
  0
ARC
  8
_1-2_
  6
CONTINUOUS
 62
    3
 10
257.58012926256333
 20
159.22722893792232
 40
0.1999999904954755
 50
162.78266906738281
 51
250.91622924804693
  0
ARC
  8
_1-2_
  6
CONTINUOUS
 62
    3
 10
255.97273543074326
 20
159.78337468327703
 40
0.1999999904954755
 50
162.78028869628909
 51
250.91174316406253
  0
ARC
  8
_1-2_
  6
CONTINUOUS
 62
    3
 10
258.05288778769005
 20
159.06367121516047
 40
0.1999999904954755
 50
250.91510009765628
 51
342.78369140625
  0
ARC
  8
_1-1_
  6
CONTINUOUS
 62
    7
 10
197.48622584987334
 20
187.76626999313768
 40
27.347822447080873
 50
9.1478271484375
 51
170.85218811035156
  0
ARC
  8
_1-1_
  6
CONTINUOUS
 62
    7
 10
197.48622584987334
 20
187.59459624419341
 40
19.919484112713789
 50
16.08660888671875
 51
163.91339111328125
  0
ARC
  8
_1-1_
  6
CONTINUOUS
 62
    7
 10
197.48622584987334
 20
187.69302780563768
 40
23.421057623785895
 50
12.185165405273436
 51
167.9019775390625
  0
CIRCLE
  8
_1-1_
  6
CONTINUOUS
 62
    7
 10
192.32808293523016
 20
198.81456942171664
 40
0.1903721649904509
  0
CIRCLE
  8
_1-1_
  6
CONTINUOUS
 62
    7
 10
193.13576363228464
 20
200.83377735034841
 40
0.1903721649904509
  0
CIRCLE
  8
_1-1_
  6
CONTINUOUS
 62
    7
 10
191.38578260267104
 20
200.83377735034841
 40
0.1903721649904509
  0
CIRCLE
  8
_1-1_
  6
CONTINUOUS
 62
    7
 10
187.88584528742612
 20
199.75686975427578
 40
0.1903721649904509
  0
CIRCLE
  8
_1-1_
  6
CONTINUOUS
 62
    7
 10
187.88584528742612
 20
198.81456942171664
 40
0.1903721649904509
  0
CIRCLE
  8
_1-1_
  6
CONTINUOUS
 62
    7
 10
191.11656807564401
 20
197.87228146114865
 40
0.1903721649904509
  0
CIRCLE
  8
_1-1_
  6
CONTINUOUS
 62
    7
 10
190.30887500659841
 20
198.27611562368034
 40
0.1903721649904509
  0
CIRCLE
  8
_1-1_
  6
CONTINUOUS
 62
    7
 10
194.61650539088896
 20
196.1223128035262
 40
0.1903721649904509
  0
CIRCLE
  8
_1-1_
  6
CONTINUOUS
 62
    7
 10
193.94344432933912
 20
195.58385900548987
 40
0.1903721649904509
  0
CIRCLE
  8
_1-1_
  6
CONTINUOUS
 62
    7
 10
190.84732880463471
 20
194.23771213840794
 40
0.1903721649904509
  0
CIRCLE
  8
_1-1_
  6
CONTINUOUS
 62
    7
 10
188.69351361248945
 20
193.69925834037164
 40
0.1903721649904509
  0
CIRCLE
  8
_1-1_
  6
CONTINUOUS
 62
    7
 10
187.34739148938979
 20
191.54544314822635
 40
0.1903721649904509
  0
CIRCLE
  8
_1-1_
  6
CONTINUOUS
 62
    7
 10
185.5974104597762
 20
190.73777482316302
 40
0.1903721649904509
  0
CIRCLE
  8
_1-1_
  6
CONTINUOUS
 62
    7
 10
185.73203009528083
 20
189.25702069256758
 40
0.1903721649904509
  0
CIRCLE
  8
_1-1_
  6
CONTINUOUS
 62
    7
 10
184.92434939822635
 20
186.29552480336784
 40
0.1903721649904509
  0
CIRCLE
  8
_1-1_
  6
CONTINUOUS
 62
    7
 10
185.19357629724453
 20
185.48784410631336
 40
0.1903721649904509
  0
CIRCLE
  8
_1-1_
  6
CONTINUOUS
 62
    7
 10
186.94354495486698
 20
186.02629790434966
 40
0.1903721649904509
  0
CIRCLE
  8
_1-1_
  6
CONTINUOUS
 62
    7
 10
186.53971079233531
 20
187.77627893396328
 40
0.1903721649904509
  0
CIRCLE
  8
_1-1_
  6
CONTINUOUS
 62
    7
 10
184.25127596468539
 20
189.93009412610854
 40
0.1903721649904509
  0
CIRCLE
  8
_1-1_
  6
CONTINUOUS
 62
    7
 10
182.90514146959461
 20
191.00700172218117
 40
0.1903721649904509
  0
CIRCLE
  8
_1-1_
  6
CONTINUOUS
 62
    7
 10
182.09746077254013
 20
191.68006278373102
 40
0.1903721649904509
  0
CIRCLE
  8
_1-1_
  6
CONTINUOUS
 62
    7
 10
180.61671901393581
 20
194.91078557194891
 40
0.1903721649904509
  0
CIRCLE
  8
_1-1_
  6
CONTINUOUS
 62
    7
 10
181.0205531764675
 20
195.71846626900339
 40
0.1903721649904509
  0
CIRCLE
  8
_1-1_
  6
CONTINUOUS
 62
    7
 10
181.82823387352198
 20
196.79537386507602
 40
0.1903721649904509
  0
CIRCLE
  8
_1-1_
  6
CONTINUOUS
 62
    7
 10
182.09746077254013
 20
194.77616593644427
 40
0.1903721649904509
  0
CIRCLE
  8
_1-1_
  6
CONTINUOUS
 62
    7
 10
183.84744180215372
 20
193.56465107685813
 40
0.1903721649904509
  0
CIRCLE
  8
_1-1_
  6
CONTINUOUS
 62
    7
 10
182.77053420608109
 20
188.85318653003591
 40
0.1903721649904509
  0
CIRCLE
  8
_1-1_
  6
CONTINUOUS
 62
    7
 10
182.36668767155828
 20
187.5070520349451
 40
0.1903721649904509
  0
CIRCLE
  8
_1-1_
  6
CONTINUOUS
 62
    7
 10
182.63591457057643
 20
186.29552480336784
 40
0.1903721649904509
  0
CIRCLE
  8
_1-1_
  6
CONTINUOUS
 62
    7
 10
183.3089880041174
 20
185.08400994378169
 40
0.1903721649904509
  0
CIRCLE
  8
_1-1_
  6
CONTINUOUS
 62
    7
 10
183.57821490313557
 20
184.00710234770904
 40
0.1903721649904509
  0
CIRCLE
  8
_1-1_
  6
CONTINUOUS
 62
    7
 10
182.77053420608109
 20
183.19942165065456
 40
0.1903721649904509
  0
CIRCLE
  8
_1-1_
  6
CONTINUOUS
 62
    7
 10
186.00125699429898
 20
183.8724827122044
 40
0.1903721649904509
  0
CIRCLE
  8
_1-1_
  6
CONTINUOUS
 62
    7
 10
187.0781522183805
 20
185.21862957928633
 40
0.1903721649904509
  0
CIRCLE
  8
_1-1_
  6
CONTINUOUS
 62
    7
 10
188.69351361248945
 20
185.75707100533151
 40
0.1903721649904509
  0
CIRCLE
  8
_1-1_
  6
CONTINUOUS
 62
    7
 10
190.57810190561656
 20
186.83397860140414
 40
0.1903721649904509
  0
CIRCLE
  8
_1-1_
  6
CONTINUOUS
 62
    7
 10
190.44349464210305
 20
188.04550583298143
 40
0.1903721649904509
  0
CIRCLE
  8
_1-1_
  6
CONTINUOUS
 62
    7
 10
192.59730983424834
 20
189.12241342905406
 40
0.1903721649904509
  0
CIRCLE
  8
_1-1_
  6
CONTINUOUS
 62
    7
 10
195.02035192541175
 20
187.77627893396328
 40
0.1903721649904509
  0
CIRCLE
  8
_1-1_
  6
CONTINUOUS
 62
    7
 10
195.42418608794341
 20
186.29552480336784
 40
0.1903721649904509
  0
CIRCLE
  8
_1-1_
  6
CONTINUOUS
 62
    7
 10
195.96263988597974
 20
184.68016340925888
 40
0.1903721649904509
  0
CIRCLE
  8
_1-1_
  6
CONTINUOUS
 62
    7
 10
195.42418608794341
 20
183.46864854967274
 40
0.1903721649904509
  0
CIRCLE
  8
_1-1_
  6
CONTINUOUS
 62
    7
 10
196.09725952148437
 20
189.79547449060391
 40
0.1903721649904509
  0
CIRCLE
  8
_1-1_
  6
CONTINUOUS
 62
    7
 10
193.00114399678
 20
190.33392828864021
 40
0.1903721649904509
  0
CIRCLE
  8
_1-1_
  6
CONTINUOUS
 62
    7
 10
189.09736014701227
 20
190.33392828864021
 40
0.1903721649904509
  0
CIRCLE
  8
_1-1_
  6
CONTINUOUS
 62
    7
 10
187.21277185388516
 20
192.4877434807855
 40
0.1903721649904509
  0
CIRCLE
  8
_1-1_
  6
CONTINUOUS
 62
    7
 10
184.38589560019005
 20
196.79537386507602
 40
0.1903721649904509
  0
CIRCLE
  8
_1-1_
  6
CONTINUOUS
 62
    7
 10
184.25127596468539
 20
198.54534252269849
 40
0.1903721649904509
  0
CIRCLE
  8
_1-1_
  6
CONTINUOUS
 62
    7
 10
184.92434939822635
 20
199.21841595623945
 40
0.1903721649904509
  0
CIRCLE
  8
_1-1_
  6
CONTINUOUS
 62
    7
 10
189.63581394504857
 20
200.83377735034841
 40
0.1903721649904509
  0
CIRCLE
  8
_1-1_
  6
CONTINUOUS
 62
    7
 10
188.15505981445312
 20
201.37223114838471
 40
0.1903721649904509
  0
CIRCLE
  8
_1-1_
  6
CONTINUOUS
 62
    7
 10
187.21277185388516
 20
201.91068494642104
 40
0.1903721649904509
  0
CIRCLE
  8
_1-1_
  6
CONTINUOUS
 62
    7
 10
183.57821490313557
 20
200.4299308158256
 40
0.1903721649904509
  0
CIRCLE
  8
_1-1_
  6
CONTINUOUS
 62
    7
 10
181.5590069745038
 20
199.21841595623945
 40
0.1903721649904509
  0
CIRCLE
  8
_1-1_
  6
CONTINUOUS
 62
    7
 10
184.11666870117187
 20
198.41073525918497
 40
0.1903721649904509
  0
CIRCLE
  8
_1-1_
  6
CONTINUOUS
 62
    7
 10
187.34739148938979
 20
197.87228146114865
 40
0.1903721649904509
  0
CIRCLE
  8
_1-1_
  6
CONTINUOUS
 62
    7
 10
189.23196741052578
 20
202.04529220993456
 40
0.1903721649904509
  0
CIRCLE
  8
_1-1_
  6
CONTINUOUS
 62
    7
 10
193.5395977948163
 20
203.12219980600719
 40
0.1903721649904509
  0
CIRCLE
  8
_1-1_
  6
CONTINUOUS
 62
    7
 10
195.55880572344807
 20
203.12219980600719
 40
0.1903721649904509
  0
CIRCLE
  8
_1-1_
  6
CONTINUOUS
 62
    7
 10
203.90482722101987
 20
202.17991184543919
 40
0.1903721649904509
  0
CIRCLE
  8
_1-1_
  6
CONTINUOUS
 62
    7
 10
200.40488990577492
 20
201.10300424936656
 40
0.1903721649904509
  0
CIRCLE
  8
_1-1_
  6
CONTINUOUS
 62
    7
 10
200.40488990577492
 20
200.16070391680745
 40
0.1903721649904509
  0
CIRCLE
  8
_1-1_
  6
CONTINUOUS
 62
    7
 10
202.82791962494721
 20
199.62225011877112
 40
0.1903721649904509
  0
CIRCLE
  8
_1-1_
  6
CONTINUOUS
 62
    7
 10
202.1548585633974
 20
202.17991184543919
 40
0.1903721649904509
  0
CIRCLE
  8
_1-1_
  6
CONTINUOUS
 62
    7
 10
200.67410443280195
 20
202.71836564347552
 40
0.1903721649904509
  0
CIRCLE
  8
_1-1_
  6
CONTINUOUS
 62
    7
 10
199.73181647223396
 20
203.25681944151182
 40
0.1903721649904509
  0
CIRCLE
  8
_1-1_
  6
CONTINUOUS
 62
    7
 10
201.75101202887458
 20
203.39142670502534
 40
0.1903721649904509
  0
CIRCLE
  8
_1-1_
  6
CONTINUOUS
 62
    7
 10
203.09715889595651
 20
198.9491890572213
 40
0.1903721649904509
  0
CIRCLE
  8
_1-1_
  6
CONTINUOUS
 62
    7
 10
199.59722158071159
 20
197.87228146114865
 40
0.1903721649904509
  0
CIRCLE
  8
_1-1_
  6
CONTINUOUS
 62
    7
 10
199.59722158071159
 20
196.92998112858953
 40
0.1903721649904509
  0
CIRCLE
  8
_1-1_
  6
CONTINUOUS
 62
    7
 10
202.02025129988388
 20
196.39152733055323
 40
0.1903721649904509
  0
CIRCLE
  8
_1-1_
  6
CONTINUOUS
 62
    7
 10
201.34719023833404
 20
198.9491890572213
 40
0.1903721649904509
  0
CIRCLE
  8
_1-1_
  6
CONTINUOUS
 62
    7
 10
199.86643610773862
 20
199.4876428552576
 40
0.1903721649904509
  0
CIRCLE
  8
_1-1_
  6
CONTINUOUS
 62
    7
 10
198.92414814717063
 20
200.02609665329393
 40
0.1903721649904509
  0
CIRCLE
  8
_1-1_
  6
CONTINUOUS
 62
    7
 10
200.94334370381125
 20
200.16070391680745
 40
0.1903721649904509
  0
CIRCLE
  8
_1-1_
  6
CONTINUOUS
 62
    7
 10
204.9817348170925
 20
193.83387797587628
 40
0.1903721649904509
  0
CIRCLE
  8
_1-1_
  6
CONTINUOUS
 62
    7
 10
201.48179750184755
 20
192.75697037980365
 40
0.1903721649904509
  0
CIRCLE
  8
_1-1_
  6
CONTINUOUS
 62
    7
 10
201.48179750184755
 20
191.81467004724453
 40
0.1903721649904509
  0
CIRCLE
  8
_1-1_
  6
CONTINUOUS
 62
    7
 10
203.90482722101987
 20
191.2762162492082
 40
0.1903721649904509
  0
CIRCLE
  8
_1-1_
  6
CONTINUOUS
 62
    7
 10
203.23176615947003
 20
193.83387797587628
 40
0.1903721649904509
  0
CIRCLE
  8
_1-1_
  6
CONTINUOUS
 62
    7
 10
201.75101202887458
 20
194.37233177391261
 40
0.1903721649904509
  0
CIRCLE
  8
_1-1_
  6
CONTINUOUS
 62
    7
 10
200.80872406830659
 20
194.91078557194891
 40
0.1903721649904509
  0
CIRCLE
  8
_1-1_
  6
CONTINUOUS
 62
    7
 10
202.82791962494721
 20
195.04539283546242
 40
0.1903721649904509
  0
CIRCLE
  8
_1-1_
  6
CONTINUOUS
 62
    7
 10
199.32798230970229
 20
193.02620965081294
 40
0.1903721649904509
  0
CIRCLE
  8
_1-1_
  6
CONTINUOUS
 62
    7
 10
195.82804499445737
 20
191.94930205474029
 40
0.1903721649904509
  0
CIRCLE
  8
_1-1_
  6
CONTINUOUS
 62
    7
 10
195.82804499445737
 20
191.00700172218117
 40
0.1903721649904509
  0
CIRCLE
  8
_1-1_
  6
CONTINUOUS
 62
    7
 10
196.09725952148437
 20
193.56466344884925
 40
0.1903721649904509
  0
CIRCLE
  8
_1-1_
  6
CONTINUOUS
 62
    7
 10
195.15497156091641
 20
194.10311724688557
 40
0.1903721649904509
  0
CIRCLE
  8
_1-1_
  6
CONTINUOUS
 62
    7
 10
202.42408546241555
 20
190.73777482316302
 40
0.1903721649904509
  0
CIRCLE
  8
_1-1_
  6
CONTINUOUS
 62
    7
 10
198.92414814717063
 20
189.66086722709039
 40
0.1903721649904509
  0
CIRCLE
  8
_1-1_
  6
CONTINUOUS
 62
    7
 10
198.92414814717063
 20
188.71856689453125
 40
0.1903721649904509
  0
CIRCLE
  8
_1-1_
  6
CONTINUOUS
 62
    7
 10
201.34717786634292
 20
188.18011309649495
 40
0.1903721649904509
  0
CIRCLE
  8
_1-1_
  6
CONTINUOUS
 62
    7
 10
200.67411680479307
 20
190.73777482316302
 40
0.1903721649904509
  0
CIRCLE
  8
_1-1_
  6
CONTINUOUS
 62
    7
 10
199.19336267419766
 20
191.27622862119932
 40
0.1903721649904509
  0
CIRCLE
  8
_1-1_
  6
CONTINUOUS
 62
    7
 10
200.27027027027029
 20
191.94928968274917
 40
0.1903721649904509
  0
CIRCLE
  8
_1-1_
  6
CONTINUOUS
 62
    7
 10
203.90482722101987
 20
187.64167167044977
 40
0.1903721649904509
  0
CIRCLE
  8
_1-1_
  6
CONTINUOUS
 62
    7
 10
200.40488990577492
 20
186.56476407437711
 40
0.1903721649904509
  0
CIRCLE
  8
_1-1_
  6
CONTINUOUS
 62
    7
 10
200.40488990577492
 20
185.622463741818
 40
0.1903721649904509
  0
CIRCLE
  8
_1-1_
  6
CONTINUOUS
 62
    7
 10
202.82791962494721
 20
185.08400994378169
 40
0.1903721649904509
  0
CIRCLE
  8
_1-1_
  6
CONTINUOUS
 62
    7
 10
202.1548585633974
 20
187.64167167044977
 40
0.1903721649904509
  0
CIRCLE
  8
_1-1_
  6
CONTINUOUS
 62
    7
 10
200.67410443280195
 20
188.18012546848607
 40
0.1903721649904509
  0
CIRCLE
  8
_1-1_
  6
CONTINUOUS
 62
    7
 10
199.73181647223396
 20
188.7185792665224
 40
0.1903721649904509
  0
CIRCLE
  8
_1-1_
  6
CONTINUOUS
 62
    7
 10
201.75101202887458
 20
188.85318653003591
 40
0.1903721649904509
  0
CIRCLE
  8
_1-1_
  6
CONTINUOUS
 62
    7
 10
209.8278313714105
 20
189.66086722709039
 40
0.1903721649904509
  0
CIRCLE
  8
_1-1_
  6
CONTINUOUS
 62
    7
 10
206.32788168417443
 20
188.58395963101773
 40
0.1903721649904509
  0
CIRCLE
  8
_1-1_
  6
CONTINUOUS
 62
    7
 10
206.32788168417443
 20
187.64165929845862
 40
0.1903721649904509
  0
CIRCLE
  8
_1-1_
  6
CONTINUOUS
 62
    7
 10
208.75092377533784
 20
187.10320550042232
 40
0.1903721649904509
  0
CIRCLE
  8
_1-1_
  6
CONTINUOUS
 62
    7
 10
208.07783796980576
 20
189.66086722709039
 40
0.1903721649904509
  0
CIRCLE
  8
_1-1_
  6
CONTINUOUS
 62
    7
 10
206.59709621120146
 20
190.19932102512669
 40
0.1903721649904509
  0
CIRCLE
  8
_1-1_
  6
CONTINUOUS
 62
    7
 10
205.65480825063347
 20
190.73777482316302
 40
0.1903721649904509
  0
CIRCLE
  8
_1-1_
  6
CONTINUOUS
 62
    7
 10
207.67401617926521
 20
190.87238208667654
 40
0.1903721649904509
  0
CIRCLE
  8
_1-1_
  6
CONTINUOUS
 62
    7
 10
212.25086109058279
 20
187.37244477143159
 40
0.1903721649904509
  0
CIRCLE
  8
_1-1_
  6
CONTINUOUS
 62
    7
 10
208.75092377533784
 20
186.29553717535896
 40
0.1903721649904509
  0
CIRCLE
  8
_1-1_
  6
CONTINUOUS
 62
    7
 10
208.75092377533784
 20
185.35323684279984
 40
0.1903721649904509
  0
CIRCLE
  8
_1-1_
  6
CONTINUOUS
 62
    7
 10
211.17395349451016
 20
184.81478304476352
 40
0.1903721649904509
  0
CIRCLE
  8
_1-1_
  6
CONTINUOUS
 62
    7
 10
210.50091717694258
 20
187.37244477143159
 40
0.1903721649904509
  0
CIRCLE
  8
_1-1_
  6
CONTINUOUS
 62
    7
 10
209.02013830236487
 20
187.91089856946792
 40
0.1903721649904509
  0
CIRCLE
  8
_1-1_
  6
CONTINUOUS
 62
    7
 10
208.07786271378802
 20
188.44935236750425
 40
0.1903721649904509
  0
CIRCLE
  8
_1-1_
  6
CONTINUOUS
 62
    7
 10
210.0970458984375
 20
188.58395963101773
 40
0.1903721649904509
  0
CIRCLE
  8
_1-1_
  6
CONTINUOUS
 62
    7
 10
212.65468288112334
 20
191.81468241923565
 40
0.1903721649904509
  0
CIRCLE
  8
_1-1_
  6
CONTINUOUS
 62
    7
 10
209.15474556587839
 20
190.73777482316302
 40
0.1903721649904509
  0
CIRCLE
  8
_1-1_
  6
CONTINUOUS
 62
    7
 10
209.15474556587839
 20
189.79547449060391
 40
0.1903721649904509
  0
CIRCLE
  8
_1-1_
  6
CONTINUOUS
 62
    7
 10
211.57777528505068
 20
189.25702069256758
 40
0.1903721649904509
  0
CIRCLE
  8
_1-1_
  6
CONTINUOUS
 62
    7
 10
210.90473896748313
 20
191.81468241923565
 40
0.1903721649904509
  0
CIRCLE
  8
_1-1_
  6
CONTINUOUS
 62
    7
 10
209.42396009290542
 20
192.35313621727198
 40
0.1903721649904509
  0
CIRCLE
  8
_1-1_
  6
CONTINUOUS
 62
    7
 10
208.48168450432857
 20
192.89159001530828
 40
0.1903721649904509
  0
CIRCLE
  8
_1-1_
  6
CONTINUOUS
 62
    7
 10
210.50086768897805
 20
193.0261972788218
 40
0.1903721649904509
  0
CIRCLE
  8
_1-1_
  6
CONTINUOUS
 62
    7
 10
212.65468288112334
 20
194.91078557194891
 40
0.1903721649904509
  0
CIRCLE
  8
_1-1_
  6
CONTINUOUS
 62
    7
 10
209.15474556587839
 20
193.83387797587628
 40
0.1903721649904509
  0
CIRCLE
  8
_1-1_
  6
CONTINUOUS
 62
    7
 10
209.15474556587839
 20
192.89157764331716
 40
0.1903721649904509
  0
CIRCLE
  8
_1-1_
  6
CONTINUOUS
 62
    7
 10
211.57777528505068
 20
192.35312384528083
 40
0.1903721649904509
  0
CIRCLE
  8
_1-1_
  6
CONTINUOUS
 62
    7
 10
210.90473896748313
 20
194.91078557194891
 40
0.1903721649904509
  0
CIRCLE
  8
_1-1_
  6
CONTINUOUS
 62
    7
 10
209.42396009290542
 20
195.44923936998524
 40
0.1903721649904509
  0
CIRCLE
  8
_1-1_
  6
CONTINUOUS
 62
    7
 10
208.48168450432857
 20
195.98769316802154
 40
0.1903721649904509
  0
CIRCLE
  8
_1-1_
  6
CONTINUOUS
 62
    7
 10
210.50086768897805
 20
196.12230043153505
 40
0.1903721649904509
  0
CIRCLE
  8
_1-1_
  6
CONTINUOUS
 62
    7
 10
213.86619774070948
 20
197.19922039959883
 40
0.1903721649904509
  0
CIRCLE
  8
_1-1_
  6
CONTINUOUS
 62
    7
 10
210.36626042546453
 20
196.1223128035262
 40
0.1903721649904509
  0
CIRCLE
  8
_1-1_
  6
CONTINUOUS
 62
    7
 10
210.36626042546453
 20
195.18001247096709
 40
0.1903721649904509
  0
CIRCLE
  8
_1-1_
  6
CONTINUOUS
 62
    7
 10
212.78929014463682
 20
194.64155867293076
 40
0.1903721649904509
  0
CIRCLE
  8
_1-1_
  6
CONTINUOUS
 62
    7
 10
212.11625382706927
 20
197.19922039959883
 40
0.1903721649904509
  0
CIRCLE
  8
_1-1_
  6
CONTINUOUS
 62
    7
 10
210.63547495249156
 20
197.73767419763516
 40
0.1903721649904509
  0
CIRCLE
  8
_1-1_
  6
CONTINUOUS
 62
    7
 10
209.69319936391472
 20
198.27612799567146
 40
0.1903721649904509
  0
CIRCLE
  8
_1-1_
  6
CONTINUOUS
 62
    7
 10
211.71238254856419
 20
198.41073525918497
 40
0.1903721649904509
  0
CIRCLE
  8
_1-1_
  6
CONTINUOUS
 62
    7
 10
209.5585921004012
 20
198.41073525918497
 40
0.1903721649904509
  0
CIRCLE
  8
_1-1_
  6
CONTINUOUS
 62
    7
 10
206.05865478515625
 20
197.33382766311234
 40
0.1903721649904509
  0
CIRCLE
  8
_1-1_
  6
CONTINUOUS
 62
    7
 10
206.05865478515625
 20
196.39152733055323
 40
0.1903721649904509
  0
CIRCLE
  8
_1-1_
  6
CONTINUOUS
 62
    7
 10
208.48168450432857
 20
195.8530735325169
 40
0.1903721649904509
  0
CIRCLE
  8
_1-1_
  6
CONTINUOUS
 62
    7
 10
207.80862344277872
 20
198.41073525918497
 40
0.1903721649904509
  0
CIRCLE
  8
_1-1_
  6
CONTINUOUS
 62
    7
 10
206.32786931218328
 20
198.9491890572213
 40
0.1903721649904509
  0
CIRCLE
  8
_1-1_
  6
CONTINUOUS
 62
    7
 10
205.38558135161529
 20
199.4876428552576
 40
0.1903721649904509
  0
CIRCLE
  8
_1-1_
  6
CONTINUOUS
 62
    7
 10
207.40477690825591
 20
199.62225011877112
 40
0.1903721649904509
  0
CIRCLE
  8
_1-1_
  6
CONTINUOUS
 62
    7
 10
207.94323070629224
 20
202.98759254249367
 40
0.1903721649904509
  0
CIRCLE
  8
_1-1_
  6
CONTINUOUS
 62
    7
 10
204.44329339104732
 20
201.91068494642104
 40
0.1903721649904509
  0
CIRCLE
  8
_1-1_
  6
CONTINUOUS
 62
    7
 10
204.44329339104732
 20
200.96838461386193
 40
0.1903721649904509
  0
CIRCLE
  8
_1-1_
  6
CONTINUOUS
 62
    7
 10
206.86632311021961
 20
200.4299308158256
 40
0.1903721649904509
  0
CIRCLE
  8
_1-1_
  6
CONTINUOUS
 62
    7
 10
206.19326204866977
 20
202.98759254249367
 40
0.1903721649904509
  0
CIRCLE
  8
_1-1_
  6
CONTINUOUS
 62
    7
 10
204.71250791807432
 20
203.52604634053
 40
0.1903721649904509
  0
CIRCLE
  8
_1-1_
  6
CONTINUOUS
 62
    7
 10
203.77021995750636
 20
204.0645001385663
 40
0.1903721649904509
  0
CIRCLE
  8
_1-1_
  6
CONTINUOUS
 62
    7
 10
205.78941551414698
 20
204.19910740207982
 40
0.1903721649904509
  0
CIRCLE
  8
_1-1_
  6
CONTINUOUS
 62
    7
 10
201.21255823083828
 20
205.81446879618878
 40
0.1903721649904509
  0
CIRCLE
  8
_1-1_
  6
CONTINUOUS
 62
    7
 10
197.71262091559333
 20
204.73756120011615
 40
0.1903721649904509
  0
CIRCLE
  8
_1-1_
  6
CONTINUOUS
 62
    7
 10
200.13565063476562
 20
203.2568070695207
 40
0.1903721649904509
  0
CIRCLE
  8
_1-1_
  6
CONTINUOUS
 62
    7
 10
199.46258957321581
 20
205.81446879618878
 40
0.1903721649904509
  0
CIRCLE
  8
_1-1_
  6
CONTINUOUS
 62
    7
 10
197.98183544262037
 20
206.35292259422511
 40
0.1903721649904509
  0
CIRCLE
  8
_1-1_
  6
CONTINUOUS
 62
    7
 10
197.03954748205237
 20
206.89137639226141
 40
0.1903721649904509
  0
CIRCLE
  8
_1-1_
  6
CONTINUOUS
 62
    7
 10
199.058743038693
 20
207.02598365577492
 40
0.1903721649904509
  0
CIRCLE
  8
_1-1_
  6
CONTINUOUS
 62
    7
 10
210.77013170396961
 20
201.2376238848712
 40
0.1903721649904509
  0
CIRCLE
  8
_1-1_
  6
CONTINUOUS
 62
    7
 10
207.27018201673354
 20
200.16071628879857
 40
0.1903721649904509
  0
CIRCLE
  8
_1-1_
  6
CONTINUOUS
 62
    7
 10
207.27018201673354
 20
199.21841595623945
 40
0.1903721649904509
  0
CIRCLE
  8
_1-1_
  6
CONTINUOUS
 62
    7
 10
209.69322410789698
 20
198.67996215820312
 40
0.1903721649904509
  0
CIRCLE
  8
_1-1_
  6
CONTINUOUS
 62
    7
 10
209.02013830236487
 20
201.2376238848712
 40
0.1903721649904509
  0
CIRCLE
  8
_1-1_
  6
CONTINUOUS
 62
    7
 10
207.53939654376057
 20
201.77607768290753
 40
0.1903721649904509
  0
CIRCLE
  8
_1-1_
  6
CONTINUOUS
 62
    7
 10
206.59710858319258
 20
202.31453148094386
 40
0.1903721649904509
  0
CIRCLE
  8
_1-1_
  6
CONTINUOUS
 62
    7
 10
208.61631651182432
 20
202.44913874445737
 40
0.1903721649904509
  0
CIRCLE
  8
_1-1_
  6
CONTINUOUS
 62
    7
 10
194.88573228990711
 20
205.14140773463896
 40
0.1903721649904509
  0
CIRCLE
  8
_1-1_
  6
CONTINUOUS
 62
    7
 10
191.38579497466216
 20
204.0645001385663
 40
0.1903721649904509
  0
CIRCLE
  8
_1-1_
  6
CONTINUOUS
 62
    7
 10
191.38579497466216
 20
203.12219980600719
 40
0.1903721649904509
  0
CIRCLE
  8
_1-1_
  6
CONTINUOUS
 62
    7
 10
193.80882469383448
 20
202.58374600797086
 40
0.1903721649904509
  0
CIRCLE
  8
_1-1_
  6
CONTINUOUS
 62
    7
 10
193.13576363228464
 20
205.14140773463896
 40
0.1903721649904509
  0
CIRCLE
  8
_1-1_
  6
CONTINUOUS
 62
    7
 10
191.65500950168919
 20
205.67986153267526
 40
0.1903721649904509
  0
CIRCLE
  8
_1-1_
  6
CONTINUOUS
 62
    7
 10
190.7127215411212
 20
206.21831533071159
 40
0.1903721649904509
  0
CIRCLE
  8
_1-1_
  6
CONTINUOUS
 62
    7
 10
192.73191709776182
 20
206.35292259422511
 40
0.1903721649904509
  0
CIRCLE
  8
_1-1_
  6
CONTINUOUS
 62
    7
 10
194.34729086386193
 20
199.08380869272594
 40
0.1903721649904509
  0
CIRCLE
  8
_1-1_
  6
CONTINUOUS
 62
    7
 10
194.34729086386193
 20
198.14150836016682
 40
0.1903721649904509
  0
CIRCLE
  8
_1-1_
  6
CONTINUOUS
 62
    7
 10
196.09725952148437
 20
200.16071628879857
 40
0.1903721649904509
  0
CIRCLE
  8
_1-1_
  6
CONTINUOUS
 62
    7
 10
194.61650539088896
 20
200.6991700868349
 40
0.1903721649904509
  0
CIRCLE
  8
_1-1_
  6
CONTINUOUS
 62
    7
 10
193.67421743032097
 20
201.2376238848712
 40
0.1903721649904509
  0
CIRCLE
  8
_1-1_
  6
CONTINUOUS
 62
    7
 10
195.69341298696159
 20
201.37223114838471
 40
0.1903721649904509
  0
CIRCLE
  8
_1-1_
  6
CONTINUOUS
 62
    7
 10
188.42429908546242
 20
201.50685078388938
 40
0.1903721649904509
  0
CIRCLE
  8
_1-1_
  6
CONTINUOUS
 62
    7
 10
184.9243617702175
 20
200.42994318781675
 40
0.1903721649904509
  0
CIRCLE
  8
_1-1_
  6
CONTINUOUS
 62
    7
 10
184.9243617702175
 20
199.4876428552576
 40
0.1903721649904509
  0
CIRCLE
  8
_1-1_
  6
CONTINUOUS
 62
    7
 10
187.34739148938979
 20
198.9491890572213
 40
0.1903721649904509
  0
CIRCLE
  8
_1-1_
  6
CONTINUOUS
 62
    7
 10
186.67433042783995
 20
201.50685078388938
 40
0.1903721649904509
  0
CIRCLE
  8
_1-1_
  6
CONTINUOUS
 62
    7
 10
185.19357629724453
 20
202.04530458192568
 40
0.1903721649904509
  0
CIRCLE
  8
_1-1_
  6
CONTINUOUS
 62
    7
 10
184.25128833667654
 20
202.58375837996201
 40
0.1903721649904509
  0
CIRCLE
  8
_1-1_
  6
CONTINUOUS
 62
    7
 10
186.27048389331716
 20
202.71836564347552
 40
0.1903721649904509
  0
CIRCLE
  8
_1-1_
  6
CONTINUOUS
 62
    7
 10
195.69341298696159
 20
192.21852895375847
 40
0.1903721649904509
  0
CIRCLE
  8
_1-1_
  6
CONTINUOUS
 62
    7
 10
192.19347567171664
 20
191.14162135768584
 40
0.1903721649904509
  0
CIRCLE
  8
_1-1_
  6
CONTINUOUS
 62
    7
 10
192.19347567171664
 20
190.19932102512669
 40
0.1903721649904509
  0
CIRCLE
  8
_1-1_
  6
CONTINUOUS
 62
    7
 10
194.61650539088896
 20
189.66086722709039
 40
0.1903721649904509
  0
CIRCLE
  8
_1-1_
  6
CONTINUOUS
 62
    7
 10
193.94344432933912
 20
192.21852895375847
 40
0.1903721649904509
  0
CIRCLE
  8
_1-1_
  6
CONTINUOUS
 62
    7
 10
192.46269019874367
 20
192.75698275179477
 40
0.1903721649904509
  0
CIRCLE
  8
_1-1_
  6
CONTINUOUS
 62
    7
 10
191.52040223817568
 20
193.29543654983109
 40
0.1903721649904509
  0
CIRCLE
  8
_1-1_
  6
CONTINUOUS
 62
    7
 10
193.5395977948163
 20
193.43004381334461
 40
0.1903721649904509
  0
CIRCLE
  8
_1-1_
  6
CONTINUOUS
 62
    7
 10
195.42418608794341
 20
195.31463210647172
 40
0.1903721649904509
  0
CIRCLE
  8
_1-1_
  6
CONTINUOUS
 62
    7
 10
191.92424877269849
 20
194.23772451039909
 40
0.1903721649904509
  0
CIRCLE
  8
_1-1_
  6
CONTINUOUS
 62
    7
 10
191.92424877269849
 20
193.29542417783995
 40
0.1903721649904509
  0
CIRCLE
  8
_1-1_
  6
CONTINUOUS
 62
    7
 10
194.34727849187078
 20
192.75697037980365
 40
0.1903721649904509
  0
CIRCLE
  8
_1-1_
  6
CONTINUOUS
 62
    7
 10
193.67421743032097
 20
195.31463210647172
 40
0.1903721649904509
  0
CIRCLE
  8
_1-1_
  6
CONTINUOUS
 62
    7
 10
192.19346329972552
 20
195.85308590450802
 40
0.1903721649904509
  0
CIRCLE
  8
_1-1_
  6
CONTINUOUS
 62
    7
 10
191.25117533915753
 20
196.39153970254435
 40
0.1903721649904509
  0
CIRCLE
  8
_1-1_
  6
CONTINUOUS
 62
    7
 10
193.27037089579815
 20
196.52614696605787
 40
0.1903721649904509
  0
CIRCLE
  8
_1-1_
  6
CONTINUOUS
 62
    7
 10
193.8088370658256
 20
197.6030545621305
 40
0.1903721649904509
  0
CIRCLE
  8
_1-1_
  6
CONTINUOUS
 62
    7
 10
190.30889975058068
 20
196.52614696605787
 40
0.1903721649904509
  0
CIRCLE
  8
_1-1_
  6
CONTINUOUS
 62
    7
 10
190.30889975058068
 20
195.58384663349875
 40
0.1903721649904509
  0
CIRCLE
  8
_1-1_
  6
CONTINUOUS
 62
    7
 10
192.73192946975297
 20
195.04539283546242
 40
0.1903721649904509
  0
CIRCLE
  8
_1-1_
  6
CONTINUOUS
 62
    7
 10
192.05886840820312
 20
197.6030545621305
 40
0.1903721649904509
  0
CIRCLE
  8
_1-1_
  6
CONTINUOUS
 62
    7
 10
190.57811427760771
 20
198.14150836016682
 40
0.1903721649904509
  0
CIRCLE
  8
_1-1_
  6
CONTINUOUS
 62
    7
 10
189.63582631703972
 20
198.67996215820312
 40
0.1903721649904509
  0
CIRCLE
  8
_1-1_
  6
CONTINUOUS
 62
    7
 10
191.65502187368034
 20
198.81456942171664
 40
0.1903721649904509
  0
CIRCLE
  8
_1-1_
  6
CONTINUOUS
 62
    7
 10
188.69352598448057
 20
195.44923936998524
 40
0.1903721649904509
  0
CIRCLE
  8
_1-1_
  6
CONTINUOUS
 62
    7
 10
185.19358866923565
 20
194.37233177391261
 40
0.1903721649904509
  0
CIRCLE
  8
_1-1_
  6
CONTINUOUS
 62
    7
 10
185.19358866923565
 20
193.43003144135346
 40
0.1903721649904509
  0
CIRCLE
  8
_1-1_
  6
CONTINUOUS
 62
    7
 10
187.61661838840794
 20
192.89157764331716
 40
0.1903721649904509
  0
CIRCLE
  8
_1-1_
  6
CONTINUOUS
 62
    7
 10
186.94355732685813
 20
195.44923936998524
 40
0.1903721649904509
  0
CIRCLE
  8
_1-1_
  6
CONTINUOUS
 62
    7
 10
185.46280319626268
 20
195.98769316802154
 40
0.1903721649904509
  0
CIRCLE
  8
_1-1_
  6
CONTINUOUS
 62
    7
 10
184.52051523569469
 20
196.52614696605787
 40
0.1903721649904509
  0
CIRCLE
  8
_1-1_
  6
CONTINUOUS
 62
    7
 10
186.53971079233531
 20
196.66075422957138
 40
0.1903721649904509
  0
CIRCLE
  8
_1-1_
  6
CONTINUOUS
 62
    7
 10
189.77042120856208
 20
195.71847864099453
 40
0.1903721649904509
  0
CIRCLE
  8
_1-1_
  6
CONTINUOUS
 62
    7
 10
186.27048389331716
 20
194.64157104492188
 40
0.1903721649904509
  0
CIRCLE
  8
_1-1_
  6
CONTINUOUS
 62
    7
 10
186.27048389331716
 20
193.69927071236276
 40
0.1903721649904509
  0
CIRCLE
  8
_1-1_
  6
CONTINUOUS
 62
    7
 10
188.69351361248945
 20
193.16081691432646
 40
0.1903721649904509
  0
CIRCLE
  8
_1-1_
  6
CONTINUOUS
 62
    7
 10
188.02045255093961
 20
195.71847864099453
 40
0.1903721649904509
  0
CIRCLE
  8
_1-1_
  6
CONTINUOUS
 62
    7
 10
186.53969842034419
 20
196.25693243903083
 40
0.1903721649904509
  0
CIRCLE
  8
_1-1_
  6
CONTINUOUS
 62
    7
 10
185.5974104597762
 20
196.79538623706716
 40
0.1903721649904509
  0
CIRCLE
  8
_1-1_
  6
CONTINUOUS
 62
    7
 10
187.61660601641682
 20
196.92999350058068
 40
0.1903721649904509
  0
CIRCLE
  8
_1-1_
  6
CONTINUOUS
 62
    7
 10
191.52040223817568
 20
189.93009412610854
 40
0.1903721649904509
  0
CIRCLE
  8
_1-1_
  6
CONTINUOUS
 62
    7
 10
188.02046492293076
 20
188.85318653003591
 40
0.1903721649904509
  0
CIRCLE
  8
_1-1_
  6
CONTINUOUS
 62
    7
 10
188.02046492293076
 20
187.91088619747677
 40
0.1903721649904509
  0
CIRCLE
  8
_1-1_
  6
CONTINUOUS
 62
    7
 10
190.44349464210305
 20
187.37243239944047
 40
0.1903721649904509
  0
CIRCLE
  8
_1-1_
  6
CONTINUOUS
 62
    7
 10
189.77043358055323
 20
189.93009412610854
 40
0.1903721649904509
  0
CIRCLE
  8
_1-1_
  6
CONTINUOUS
 62
    7
 10
188.28967944995779
 20
190.46854792414487
 40
0.1903721649904509
  0
CIRCLE
  8
_1-1_
  6
CONTINUOUS
 62
    7
 10
187.34739148938979
 20
191.00700172218117
 40
0.1903721649904509
  0
CIRCLE
  8
_1-1_
  6
CONTINUOUS
 62
    7
 10
189.36658704603042
 20
191.14160898569469
 40
0.1903721649904509
  0
CIRCLE
  8
_1-1_
  6
CONTINUOUS
 62
    7
 10
189.50120668153505
 20
190.60316755964951
 40
0.1903721649904509
  0
CIRCLE
  8
_1-1_
  6
CONTINUOUS
 62
    7
 10
186.00126936629013
 20
189.52625996357688
 40
0.1903721649904509
  0
CIRCLE
  8
_1-1_
  6
CONTINUOUS
 62
    7
 10
186.00126936629013
 20
188.58395963101773
 40
0.1903721649904509
  0
CIRCLE
  8
_1-1_
  6
CONTINUOUS
 62
    7
 10
188.42429908546242
 20
188.04550583298143
 40
0.1903721649904509
  0
CIRCLE
  8
_1-1_
  6
CONTINUOUS
 62
    7
 10
187.75123802391261
 20
190.60316755964951
 40
0.1903721649904509
  0
CIRCLE
  8
_1-1_
  6
CONTINUOUS
 62
    7
 10
186.27048389331716
 20
191.14162135768584
 40
0.1903721649904509
  0
CIRCLE
  8
_1-1_
  6
CONTINUOUS
 62
    7
 10
185.32819593274917
 20
191.68007515572214
 40
0.1903721649904509
  0
CIRCLE
  8
_1-1_
  6
CONTINUOUS
 62
    7
 10
187.34739148938979
 20
191.81468241923565
 40
0.1903721649904509
  0
CIRCLE
  8
_1-1_
  6
CONTINUOUS
 62
    7
 10
207.94323070629224
 20
187.37244477143159
 40
0.1903721649904509
  0
CIRCLE
  8
_1-1_
  6
CONTINUOUS
 62
    7
 10
204.44329339104732
 20
186.29553717535896
 40
0.1903721649904509
  0
CIRCLE
  8
_1-1_
  6
CONTINUOUS
 62
    7
 10
204.44329339104732
 20
185.35323684279984
 40
0.1903721649904509
  0
CIRCLE
  8
_1-1_
  6
CONTINUOUS
 62
    7
 10
206.86632311021961
 20
184.81478304476352
 40
0.1903721649904509
  0
CIRCLE
  8
_1-1_
  6
CONTINUOUS
 62
    7
 10
206.19326204866977
 20
187.37244477143159
 40
0.1903721649904509
  0
CIRCLE
  8
_1-1_
  6
CONTINUOUS
 62
    7
 10
204.71250791807432
 20
187.91089856946792
 40
0.1903721649904509
  0
CIRCLE
  8
_1-1_
  6
CONTINUOUS
 62
    7
 10
203.77021995750636
 20
188.44935236750425
 40
0.1903721649904509
  0
CIRCLE
  8
_1-1_
  6
CONTINUOUS
 62
    7
 10
205.78941551414698
 20
188.58395963101773
 40
0.1903721649904509
  0
CIRCLE
  8
_1-1_
  6
CONTINUOUS
 62
    7
 10
210.50091717694258
 20
184.94940268026818
 40
0.1903721649904509
  0
CIRCLE
  8
_1-1_
  6
CONTINUOUS
 62
    7
 10
210.77013170396961
 20
183.87249508419552
 40
0.1903721649904509
  0
CIRCLE
  8
_1-1_
  6
CONTINUOUS
 62
    7
 10
212.25086109058279
 20
184.54555614574537
 40
0.1903721649904509
  0
CIRCLE
  8
_1-1_
  6
CONTINUOUS
 62
    7
 10
211.57782477301521
 20
190.60316755964951
 40
0.1903721649904509
  0
CIRCLE
  8
_1-1_
  6
CONTINUOUS
 62
    7
 10
211.84703930004224
 20
189.52625996357688
 40
0.1903721649904509
  0
CIRCLE
  8
_1-1_
  6
CONTINUOUS
 62
    7
 10
213.32776868665542
 20
190.19932102512669
 40
0.1903721649904509
  0
CIRCLE
  8
_1-1_
  6
CONTINUOUS
 62
    7
 10
201.61641713735222
 20
195.98769316802154
 40
0.1903721649904509
  0
CIRCLE
  8
_1-1_
  6
CONTINUOUS
 62
    7
 10
201.88563166437925
 20
194.91078557194891
 40
0.1903721649904509
  0
CIRCLE
  8
_1-1_
  6
CONTINUOUS
 62
    7
 10
203.36636105099242
 20
195.58384663349875
 40
0.1903721649904509
  0
CIRCLE
  8
_1-1_
  6
CONTINUOUS
 62
    7
 10
198.92414814717063
 20
194.23772451039909
 40
0.1903721649904509
  0
CIRCLE
  8
_1-1_
  6
CONTINUOUS
 62
    7
 10
200.4048775337838
 20
194.91078557194891
 40
0.1903721649904509
  0
CIRCLE
  8
_1-1_
  6
CONTINUOUS
 62
    7
 10
198.78954088365711
 20
188.18012546848607
 40
0.1903721649904509
  0
CIRCLE
  8
_1-1_
  6
CONTINUOUS
 62
    7
 10
199.05875541068414
 20
187.10321787241344
 40
0.1903721649904509
  0
CIRCLE
  8
_1-1_
  6
CONTINUOUS
 62
    7
 10
200.53948479729732
 20
187.77627893396328
 40
0.1903721649904509
  0
CIRCLE
  8
_1-1_
  6
CONTINUOUS
 62
    7
 10
199.86642373574747
 20
185.08400994378169
 40
0.1903721649904509
  0
CIRCLE
  8
_1-1_
  6
CONTINUOUS
 62
    7
 10
199.73180410024284
 20
183.60325581318625
 40
0.1903721649904509
  0
CIRCLE
  8
_1-1_
  6
CONTINUOUS
 62
    7
 10
195.55881809543919
 20
184.54555614574537
 40
0.1903721649904509
  0
CIRCLE
  8
_1-1_
  6
CONTINUOUS
 62
    7
 10
195.82803262246622
 20
183.46864854967274
 40
0.1903721649904509
  0
CIRCLE
  8
_1-1_
  6
CONTINUOUS
 62
    7
 10
197.3087620090794
 20
184.14170961122255
 40
0.1903721649904509
  0
CIRCLE
  8
_1-1_
  6
CONTINUOUS
 62
    7
 10
195.69343773094386
 20
187.10321787241344
 40
0.1903721649904509
  0
CIRCLE
  8
_1-1_
  6
CONTINUOUS
 62
    7
 10
195.96265225797086
 20
186.02631027634081
 40
0.1903721649904509
  0
CIRCLE
  8
_1-1_
  6
CONTINUOUS
 62
    7
 10
185.19358866923565
 20
190.60316755964951
 40
0.1903721649904509
  0
CIRCLE
  8
_1-1_
  6
CONTINUOUS
 62
    7
 10
185.46280319626268
 20
189.52625996357688
 40
0.1903721649904509
  0
CIRCLE
  8
_1-1_
  6
CONTINUOUS
 62
    7
 10
186.94353258287586
 20
190.19932102512669
 40
0.1903721649904509
  0
ARC
  8
_1-1_
  6
DASHED1
 62
    3
 10
197.2467041015625
 20
155.55012470967063
 40
0.599999959404404
 50
180
 51
270
  0
ARC
  8
_1-1_
  6
DASHED1
 62
    3
 10
199.0467050913218
 20
157.3501256994299
 40
0.599999959404404
 50
180
 51
270
  0
CIRCLE
  8
_1-1_
  6
CONTINUOUS
 62
    3
 10
199.31502883498734
 20
201.82599866712417
 40
0.899999914942561
  0
CIRCLE
  8
_1-0_
  6
CONTINUOUS
 62
    7
 10
29.652507885082343
 20
97.586869935731642
 40
0.1638122668137421
  0
CIRCLE
  8
_1-0_
  6
CONTINUOUS
 62
    7
 10
32.084940317514793
 20
98.976826023411107
 40
0.1638122668137421
  0
CIRCLE
  8
_1-0_
  6
CONTINUOUS
 62
    7
 10
34.054054054054063
 20
99.67181025324642
 40
0.1638122668137421
  0
CIRCLE
  8
_1-0_
  6
CONTINUOUS
 62
    7
 10
32.084940317514793
 20
97.355204401789493
 40
0.1638122668137421
  0
CIRCLE
  8
_1-0_
  6
CONTINUOUS
 62
    7
 10
29.536678211109063
 20
95.733582780167865
 40
0.1638122668137421
  0
CIRCLE
  8
_1-0_
  6
CONTINUOUS
 62
    7
 10
27.683394148543073
 20
95.50192343222129
 40
0.1638122668137421
  0
CIRCLE
  8
_1-0_
  6
CONTINUOUS
 62
    7
 10
27.79922691551414
 20
97.47103716876056
 40
0.1638122668137421
  0
CIRCLE
  8
_1-0_
  6
CONTINUOUS
 62
    7
 10
28.725867400298256
 20
98.745166675464532
 40
0.1638122668137421
  0
CIRCLE
  8
_1-0_
  6
CONTINUOUS
 62
    7
 10
30
 20
99.440144719304271
 40
0.1638122668137421
  0
CIRCLE
  8
_1-0_
  6
CONTINUOUS
 62
    7
 10
32.548259013407943
 20
99.787636834221928
 40
0.1638122668137421
  0
CIRCLE
  8
_1-0_
  6
CONTINUOUS
 62
    7
 10
35.791502256651199
 20
99.440144719304271
 40
0.1638122668137421
  0
CIRCLE
  8
_1-0_
  6
CONTINUOUS
 62
    7
 10
39.776687622070313
 20
101.81780016100085
 40
0.1638122668137421
  0
CIRCLE
  8
_1-0_
  6
CONTINUOUS
 62
    7
 10
40.308878099596171
 20
102.77574487634608
 40
0.1638122668137421
  0
CIRCLE
  8
_1-0_
  6
CONTINUOUS
 62
    7
 10
37.222162195154141
 20
102.88218111605258
 40
0.1638122668137421
  0
CIRCLE
  8
_1-0_
  6
CONTINUOUS
 62
    7
 10
34.774079193940025
 20
102.03067882640943
 40
0.1638122668137421
  0
CIRCLE
  8
_1-0_
  6
CONTINUOUS
 62
    7
 10
38.286546243203645
 20
100.54053435454497
 40
0.1638122668137421
  0
CIRCLE
  8
_1-0_
  6
CONTINUOUS
 62
    7
 10
38.180106910499376
 20
99.79546830460832
 40
0.1638122668137421
  0
CIRCLE
  8
_1-0_
  6
CONTINUOUS
 62
    7
 10
34.24188562341638
 20
97.666694022513724
 40
0.1638122668137421
  0
CIRCLE
  8
_1-0_
  6
CONTINUOUS
 62
    7
 10
34.454761195827189
 20
100.75341301995356
 40
0.1638122668137421
  0
CIRCLE
  8
_1-0_
  6
CONTINUOUS
 62
    7
 10
33.177498482369089
 20
100.75341301995356
 40
0.1638122668137421
  0
CIRCLE
  8
_1-0_
  6
CONTINUOUS
 62
    7
 10
40.415317432300469
 20
99.901904544314831
 40
0.1638122668137421
  0
CIRCLE
  8
_1-0_
  6
CONTINUOUS
 62
    7
 10
42.331209955988697
 20
102.13711506611592
 40
0.1638122668137421
  0
CIRCLE
  8
_1-0_
  6
CONTINUOUS
 62
    7
 10
47.653133289234063
 20
104.05299831081082
 40
0.1638122668137421
  0
CIRCLE
  8
_1-0_
  6
CONTINUOUS
 62
    7
 10
47.227379051414687
 20
104.26587079022383
 40
0.1638122668137421
  0
CIRCLE
  8
_1-0_
  6
CONTINUOUS
 62
    7
 10
51.484918336610548
 20
106.39464507231841
 40
0.1638122668137421
  0
CIRCLE
  8
_1-0_
  6
CONTINUOUS
 62
    7
 10
44.566417384792032
 20
105.7560276340794
 40
0.1638122668137421
  0
CIRCLE
  8
_1-0_
  6
CONTINUOUS
 62
    7
 10
44.034223814268387
 20
102.88218111605258
 40
0.1638122668137421
  0
CIRCLE
  8
_1-0_
  6
CONTINUOUS
 62
    7
 10
42.650524861103776
 20
103.94657444309544
 40
0.1638122668137421
  0
CIRCLE
  8
_1-0_
  6
CONTINUOUS
 62
    7
 10
47.227379051414687
 20
105.86245150179477
 40
0.1638122668137421
  0
CIRCLE
  8
_1-0_
  6
CONTINUOUS
 62
    7
 10
48.717517337283567
 20
104.79806436074747
 40
0.1638122668137421
  0
CIRCLE
  8
_1-0_
  6
CONTINUOUS
 62
    7
 10
45.098610955315678
 20
103.62725335198481
 40
0.1638122668137421
  0
CIRCLE
  8
_1-0_
  6
CONTINUOUS
 62
    7
 10
51.406656213708828
 20
108.06949099978885
 40
0.150517015843778
  0
CIRCLE
  8
_1-0_
  6
CONTINUOUS
 62
    7
 10
49.277888117609791
 20
106.79223137932856
 40
0.150517015843778
  0
CIRCLE
  8
_1-0_
  6
CONTINUOUS
 62
    7
 10
50.980901975889481
 20
105.30208690746412
 40
0.150517015843778
  0
CIRCLE
  8
_1-0_
  6
CONTINUOUS
 62
    7
 10
50.768026403478672
 20
107.43086118955871
 40
0.150517015843778
  0
CIRCLE
  8
_1-0_
  6
CONTINUOUS
 62
    7
 10
49.4907636900206
 20
108.49523595861487
 40
0.150517015843778
  0
CIRCLE
  8
_1-0_
  6
CONTINUOUS
 62
    7
 10
44.168840356775235
 20
105.72784423828125
 40
0.150517015843778
  0
CIRCLE
  8
_1-0_
  6
CONTINUOUS
 62
    7
 10
43.21089564143
 20
104.87632957664697
 40
0.150517015843778
  0
CIRCLE
  8
_1-0_
  6
CONTINUOUS
 62
    7
 10
48.213504069560287
 20
103.17331881136508
 40
0.150517015843778
  0
CIRCLE
  8
_1-0_
  6
CONTINUOUS
 62
    7
 10
51.513095546413126
 20
104.9827781883446
 40
0.150517015843778
  0
CIRCLE
  8
_1-0_
  6
CONTINUOUS
 62
    7
 10
58.857347643053203
 20
108.6016845703125
 40
0.150517015843778
  0
CIRCLE
  8
_1-0_
  6
CONTINUOUS
 62
    7
 10
63.114896207242396
 20
110.51757400100296
 40
0.150517015843778
  0
CIRCLE
  8
_1-0_
  6
CONTINUOUS
 62
    7
 10
56.83502197265625
 20
109.7725079510663
 40
0.150517015843778
  0
CIRCLE
  8
_1-0_
  6
CONTINUOUS
 62
    7
 10
56.515700881545627
 20
108.70812081001901
 40
0.150517015843778
  0
CIRCLE
  8
_1-0_
  6
CONTINUOUS
 62
    7
 10
55.344877500791824
 20
107.43086118955871
 40
0.150517015843778
  0
CIRCLE
  8
_1-0_
  6
CONTINUOUS
 62
    7
 10
54.174054120038022
 20
109.45318685995566
 40
0.150517015843778
  0
CIRCLE
  8
_1-0_
  6
CONTINUOUS
 62
    7
 10
53.961181640625
 20
107.3244249498522
 40
0.150517015843778
  0
CIRCLE
  8
_1-0_
  6
CONTINUOUS
 62
    7
 10
54.91913254196578
 20
106.36647404851141
 40
0.150517015843778
  0
CIRCLE
  8
_1-0_
  6
CONTINUOUS
 62
    7
 10
57.899409113703541
 20
109.34675062024917
 40
0.150517015843778
  0
CIRCLE
  8
_1-0_
  6
CONTINUOUS
 62
    7
 10
60.453928354624168
 20
110.83688272012247
 40
0.150517015843778
  0
CIRCLE
  8
_1-0_
  6
CONTINUOUS
 62
    7
 10
58.112281593116563
 20
111.15620381123311
 40
0.150517015843778
  0
CIRCLE
  8
_1-0_
  6
CONTINUOUS
 62
    7
 10
69.075449350717918
 20
112.32702719198691
 40
0.150517015843778
  0
CIRCLE
  8
_1-0_
  6
CONTINUOUS
 62
    7
 10
67.37243239944047
 20
113.60428681244721
 40
0.150517015843778
  0
CIRCLE
  8
_1-0_
  6
CONTINUOUS
 62
    7
 10
63.753526017472552
 20
113.39141433303421
 40
0.150517015843778
  0
CIRCLE
  8
_1-0_
  6
CONTINUOUS
 62
    7
 10
62.58270263671875
 20
112.64633591110642
 40
0.150517015843778
  0
CIRCLE
  8
_1-0_
  6
CONTINUOUS
 62
    7
 10
60.560364594330679
 20
112.96565700221707
 40
0.150517015843778
  0
CIRCLE
  8
_1-0_
  6
CONTINUOUS
 62
    7
 10
66.414481498099661
 20
112.64633591110642
 40
0.150517015843778
  0
CIRCLE
  8
_1-0_
  6
CONTINUOUS
 62
    7
 10
60.241055875211146
 20
110.19826528188345
 40
0.150517015843778
  0
CIRCLE
  8
_1-0_
  6
CONTINUOUS
 62
    7
 10
64.363978617900131
 20
113.951791299356
 40
0.1638122668137421
  0
CIRCLE
  8
_1-0_
  6
CONTINUOUS
 62
    7
 10
64.896166002428231
 20
114.9097422006968
 40
0.1638122668137421
  0
CIRCLE
  8
_1-0_
  6
CONTINUOUS
 62
    7
 10
66.918504044816302
 20
114.27110001847551
 40
0.1638122668137421
  0
CIRCLE
  8
_1-0_
  6
CONTINUOUS
 62
    7
 10
72.240427378061668
 20
116.18698944916596
 40
0.1638122668137421
  0
CIRCLE
  8
_1-0_
  6
CONTINUOUS
 62
    7
 10
71.814670047244533
 20
116.39986192857897
 40
0.1638122668137421
  0
CIRCLE
  8
_1-0_
  6
CONTINUOUS
 62
    7
 10
68.621514810098176
 20
115.01616606841218
 40
0.1638122668137421
  0
CIRCLE
  8
_1-0_
  6
CONTINUOUS
 62
    7
 10
67.237812763935835
 20
116.0805655814506
 40
0.1638122668137421
  0
CIRCLE
  8
_1-0_
  6
CONTINUOUS
 62
    7
 10
69.685901951145468
 20
115.76124449033996
 40
0.1638122668137421
  0
CIRCLE
  8
_1-0_
  6
CONTINUOUS
 62
    7
 10
72.800791972392318
 20
115.30730376372468
 40
0.150517015843778
  0
CIRCLE
  8
_1-0_
  6
CONTINUOUS
 62
    7
 10
77.881665616422083
 20
117.35781282991977
 40
0.1638122668137421
  0
CIRCLE
  8
_1-0_
  6
CONTINUOUS
 62
    7
 10
78.413853000950155
 20
118.31575135926943
 40
0.1638122668137421
  0
CIRCLE
  8
_1-0_
  6
CONTINUOUS
 62
    7
 10
80.436191043338283
 20
117.67713392103042
 40
0.1638122668137421
  0
CIRCLE
  8
_1-0_
  6
CONTINUOUS
 62
    7
 10
85.75811437658362
 20
119.59301097972974
 40
0.1638122668137421
  0
CIRCLE
  8
_1-0_
  6
CONTINUOUS
 62
    7
 10
85.332357045766472
 20
119.80588345914275
 40
0.1638122668137421
  0
CIRCLE
  8
_1-0_
  6
CONTINUOUS
 62
    7
 10
82.139201808620143
 20
118.42219997096707
 40
0.1638122668137421
  0
CIRCLE
  8
_1-0_
  6
CONTINUOUS
 62
    7
 10
80.75549976245776
 20
119.48658711201436
 40
0.1638122668137421
  0
CIRCLE
  8
_1-0_
  6
CONTINUOUS
 62
    7
 10
83.203588949667449
 20
119.16726602090372
 40
0.1638122668137421
  0
CIRCLE
  8
_1-0_
  6
CONTINUOUS
 62
    7
 10
86.318478970914285
 20
118.71333766627957
 40
0.150517015843778
  0
CIRCLE
  8
_1-0_
  6
CONTINUOUS
 62
    7
 10
71.282476476720859
 20
117.03850411080026
 40
0.1638122668137421
  0
CIRCLE
  8
_1-0_
  6
CONTINUOUS
 62
    7
 10
71.814670047244533
 20
117.99645501214106
 40
0.1638122668137421
  0
CIRCLE
  8
_1-0_
  6
CONTINUOUS
 62
    7
 10
73.836995717641457
 20
117.35781282991977
 40
0.1638122668137421
  0
CIRCLE
  8
_1-0_
  6
CONTINUOUS
 62
    7
 10
79.158919050886823
 20
119.27370226061022
 40
0.1638122668137421
  0
CIRCLE
  8
_1-0_
  6
CONTINUOUS
 62
    7
 10
78.733167906065262
 20
119.48657474002323
 40
0.1638122668137421
  0
CIRCLE
  8
_1-0_
  6
CONTINUOUS
 62
    7
 10
75.540012668918905
 20
118.10287887985642
 40
0.1638122668137421
  0
CIRCLE
  8
_1-0_
  6
CONTINUOUS
 62
    7
 10
74.156316808752109
 20
119.16727839289486
 40
0.1638122668137421
  0
CIRCLE
  8
_1-0_
  6
CONTINUOUS
 62
    7
 10
76.604399809966225
 20
118.84795730178421
 40
0.1638122668137421
  0
CIRCLE
  8
_1-0_
  6
CONTINUOUS
 62
    7
 10
79.71929601720862
 20
118.39401657516892
 40
0.150517015843778
  0
CIRCLE
  8
_1-0_
  6
CONTINUOUS
 62
    7
 10
87.886882472682643
 20
123.74412330421242
 40
0.1638122668137421
  0
CIRCLE
  8
_1-0_
  6
CONTINUOUS
 62
    7
 10
88.419069857210729
 20
124.70207420555322
 40
0.1638122668137421
  0
CIRCLE
  8
_1-0_
  6
CONTINUOUS
 62
    7
 10
90.441407899598829
 20
124.06343202333193
 40
0.1638122668137421
  0
CIRCLE
  8
_1-0_
  6
CONTINUOUS
 62
    7
 10
95.76333123284418
 20
125.97932145402238
 40
0.1638122668137421
  0
CIRCLE
  8
_1-0_
  6
CONTINUOUS
 62
    7
 10
95.337573902027032
 20
126.19219393343539
 40
0.1638122668137421
  0
CIRCLE
  8
_1-0_
  6
CONTINUOUS
 62
    7
 10
92.144418664880703
 20
124.80849807326859
 40
0.1638122668137421
  0
CIRCLE
  8
_1-0_
  6
CONTINUOUS
 62
    7
 10
90.760716618718334
 20
125.87289758630702
 40
0.1638122668137421
  0
CIRCLE
  8
_1-0_
  6
CONTINUOUS
 62
    7
 10
93.208805805928009
 20
125.55357649519638
 40
0.1638122668137421
  0
CIRCLE
  8
_1-0_
  6
CONTINUOUS
 62
    7
 10
96.323695827174831
 20
125.09963576858109
 40
0.150517015843778
  0
CIRCLE
  8
_1-0_
  6
CONTINUOUS
 62
    7
 10
78.626731666358751
 20
121.40247654270482
 40
0.1638122668137421
  0
CIRCLE
  8
_1-0_
  6
CONTINUOUS
 62
    7
 10
79.158919050886823
 20
122.36042744404561
 40
0.1638122668137421
  0
CIRCLE
  8
_1-0_
  6
CONTINUOUS
 62
    7
 10
81.181257093274922
 20
121.72178526182434
 40
0.1638122668137421
  0
CIRCLE
  8
_1-0_
  6
CONTINUOUS
 62
    7
 10
86.503180426520274
 20
123.63767469251479
 40
0.1638122668137421
  0
CIRCLE
  8
_1-0_
  6
CONTINUOUS
 62
    7
 10
86.077423095703125
 20
123.8505471719278
 40
0.1638122668137421
  0
CIRCLE
  8
_1-0_
  6
CONTINUOUS
 62
    7
 10
82.884267858556797
 20
122.46685131176099
 40
0.1638122668137421
  0
CIRCLE
  8
_1-0_
  6
CONTINUOUS
 62
    7
 10
81.500565812394427
 20
123.53125082479941
 40
0.1638122668137421
  0
CIRCLE
  8
_1-0_
  6
CONTINUOUS
 62
    7
 10
83.948654999604102
 20
123.21192973368878
 40
0.1638122668137421
  0
CIRCLE
  8
_1-0_
  6
CONTINUOUS
 62
    7
 10
87.063545020850938
 20
122.75798900707349
 40
0.150517015843778
  0
CIRCLE
  8
_1-0_
  6
CONTINUOUS
 62
    7
 10
84.480848570127748
 20
119.91234444283151
 40
0.1638122668137421
  0
CIRCLE
  8
_1-0_
  6
CONTINUOUS
 62
    7
 10
85.013035954655834
 20
120.87029534417231
 40
0.1638122668137421
  0
CIRCLE
  8
_1-0_
  6
CONTINUOUS
 62
    7
 10
87.035373997043919
 20
120.23165316195102
 40
0.1638122668137421
  0
CIRCLE
  8
_1-0_
  6
CONTINUOUS
 62
    7
 10
92.357297330289285
 20
122.14754259264147
 40
0.1638122668137421
  0
CIRCLE
  8
_1-0_
  6
CONTINUOUS
 62
    7
 10
91.931539999472136
 20
122.36041507205448
 40
0.1638122668137421
  0
CIRCLE
  8
_1-0_
  6
CONTINUOUS
 62
    7
 10
88.738384762325808
 20
120.97671921188767
 40
0.1638122668137421
  0
CIRCLE
  8
_1-0_
  6
CONTINUOUS
 62
    7
 10
87.354682716163438
 20
122.04111872492611
 40
0.1638122668137421
  0
CIRCLE
  8
_1-0_
  6
CONTINUOUS
 62
    7
 10
89.802771903373099
 20
121.72179763381547
 40
0.1638122668137421
  0
CIRCLE
  8
_1-0_
  6
CONTINUOUS
 62
    7
 10
92.917661924619935
 20
121.26785690720017
 40
0.150517015843778
  0
CIRCLE
  8
_1-0_
  6
CONTINUOUS
 62
    7
 10
103.74621623271221
 20
129.27893148886193
 40
0.1638122668137421
  0
CIRCLE
  8
_1-0_
  6
CONTINUOUS
 62
    7
 10
104.27840361724029
 20
130.23688239020271
 40
0.1638122668137421
  0
CIRCLE
  8
_1-0_
  6
CONTINUOUS
 62
    7
 10
106.30074165962839
 20
129.59824020798143
 40
0.1638122668137421
  0
CIRCLE
  8
_1-0_
  6
CONTINUOUS
 62
    7
 10
111.62266499287374
 20
131.51412963867187
 40
0.1638122668137421
  0
CIRCLE
  8
_1-0_
  6
CONTINUOUS
 62
    7
 10
111.19690766205659
 20
131.7270021180849
 40
0.1638122668137421
  0
CIRCLE
  8
_1-0_
  6
CONTINUOUS
 62
    7
 10
108.0037462389147
 20
130.34330625791807
 40
0.1638122668137421
  0
CIRCLE
  8
_1-0_
  6
CONTINUOUS
 62
    7
 10
106.62005037874789
 20
131.40770577095651
 40
0.1638122668137421
  0
CIRCLE
  8
_1-0_
  6
CONTINUOUS
 62
    7
 10
109.06813337996201
 20
131.08838467984586
 40
0.1638122668137421
  0
CIRCLE
  8
_1-0_
  6
CONTINUOUS
 62
    7
 10
112.1830295872044
 20
130.63444395323057
 40
0.150517015843778
  0
CIRCLE
  8
_1-0_
  6
CONTINUOUS
 62
    7
 10
94.486065426388308
 20
127.36304205817146
 40
0.1638122668137421
  0
CIRCLE
  8
_1-0_
  6
CONTINUOUS
 62
    7
 10
95.018252810916394
 20
128.32098058752112
 40
0.1638122668137421
  0
CIRCLE
  8
_1-0_
  6
CONTINUOUS
 62
    7
 10
97.040590853304479
 20
127.6823631492821
 40
0.1638122668137421
  0
CIRCLE
  8
_1-0_
  6
CONTINUOUS
 62
    7
 10
102.36251418654983
 20
129.59824020798143
 40
0.1638122668137421
  0
CIRCLE
  8
_1-0_
  6
CONTINUOUS
 62
    7
 10
101.9367568557327
 20
129.81111268739443
 40
0.1638122668137421
  0
CIRCLE
  8
_1-0_
  6
CONTINUOUS
 62
    7
 10
98.743601618586368
 20
128.42742919921875
 40
0.1638122668137421
  0
CIRCLE
  8
_1-0_
  6
CONTINUOUS
 62
    7
 10
97.359899572423998
 20
129.49181634026604
 40
0.1638122668137421
  0
CIRCLE
  8
_1-0_
  6
CONTINUOUS
 62
    7
 10
99.807988759633659
 20
129.17249524915542
 40
0.1638122668137421
  0
CIRCLE
  8
_1-0_
  6
CONTINUOUS
 62
    7
 10
102.9228787808805
 20
128.71856689453125
 40
0.150517015843778
  0
CIRCLE
  8
_1-0_
  6
CONTINUOUS
 62
    7
 10
114.28362047350085
 20
136.19742316168708
 40
0.1638122668137421
  0
CIRCLE
  8
_1-0_
  6
CONTINUOUS
 62
    7
 10
114.81581404402451
 20
137.15537406302789
 40
0.1638122668137421
  0
CIRCLE
  8
_1-0_
  6
CONTINUOUS
 62
    7
 10
116.83815208641259
 20
136.51673188080659
 40
0.1638122668137421
  0
CIRCLE
  8
_1-0_
  6
CONTINUOUS
 62
    7
 10
122.16007541965794
 20
138.43262131149706
 40
0.1638122668137421
  0
CIRCLE
  8
_1-0_
  6
CONTINUOUS
 62
    7
 10
121.73431808884079
 20
138.64549379091005
 40
0.1638122668137421
  0
CIRCLE
  8
_1-0_
  6
CONTINUOUS
 62
    7
 10
118.54116903769004
 20
137.26179793074326
 40
0.1638122668137421
  0
CIRCLE
  8
_1-0_
  6
CONTINUOUS
 62
    7
 10
117.1574608055321
 20
138.32619744378167
 40
0.1638122668137421
  0
CIRCLE
  8
_1-0_
  6
CONTINUOUS
 62
    7
 10
119.60555617873733
 20
138.00687635267104
 40
0.1638122668137421
  0
CIRCLE
  8
_1-0_
  6
CONTINUOUS
 62
    7
 10
122.72044001398861
 20
137.55293562605576
 40
0.150517015843778
  0
CIRCLE
  8
_1-0_
  6
CONTINUOUS
 62
    7
 10
105.55567560969173
 20
132.89783787082982
 40
0.1638122668137421
  0
CIRCLE
  8
_1-0_
  6
CONTINUOUS
 62
    7
 10
106.08785680822425
 20
133.85578877217063
 40
0.1638122668137421
  0
CIRCLE
  8
_1-0_
  6
CONTINUOUS
 62
    7
 10
108.11019485061233
 20
133.21714658994932
 40
0.1638122668137421
  0
CIRCLE
  8
_1-0_
  6
CONTINUOUS
 62
    7
 10
113.4321181838577
 20
135.13303602063979
 40
0.1638122668137421
  0
CIRCLE
  8
_1-0_
  6
CONTINUOUS
 62
    7
 10
113.00636085304055
 20
135.34590850005279
 40
0.1638122668137421
  0
CIRCLE
  8
_1-0_
  6
CONTINUOUS
 62
    7
 10
109.81319942989866
 20
133.96221263988599
 40
0.1638122668137421
  0
CIRCLE
  8
_1-0_
  6
CONTINUOUS
 62
    7
 10
108.42950356973185
 20
135.02661215292443
 40
0.1638122668137421
  0
CIRCLE
  8
_1-0_
  6
CONTINUOUS
 62
    7
 10
110.87758657094595
 20
134.70729106181378
 40
0.1638122668137421
  0
CIRCLE
  8
_1-0_
  6
CONTINUOUS
 62
    7
 10
113.99248277818835
 20
134.25335033519849
 40
0.150517015843778
  0
CIRCLE
  8
_1-0_
  6
CONTINUOUS
 62
    7
 10
133.22966704497466
 20
143.00949096679687
 40
0.1638122668137421
  0
CIRCLE
  8
_1-0_
  6
CONTINUOUS
 62
    7
 10
133.76186061549831
 20
143.96744186813768
 40
0.1638122668137421
  0
CIRCLE
  8
_1-0_
  6
CONTINUOUS
 62
    7
 10
135.78419865788641
 20
143.32879968591638
 40
0.1638122668137421
  0
CIRCLE
  8
_1-0_
  6
CONTINUOUS
 62
    7
 10
141.10612199113177
 20
145.24468911660685
 40
0.1638122668137421
  0
CIRCLE
  8
_1-0_
  6
CONTINUOUS
 62
    7
 10
140.68036466031461
 20
145.45756159601984
 40
0.1638122668137421
  0
CIRCLE
  8
_1-0_
  6
CONTINUOUS
 62
    7
 10
137.48721560916385
 20
144.07386573585305
 40
0.1638122668137421
  0
CIRCLE
  8
_1-0_
  6
CONTINUOUS
 62
    7
 10
136.10350737700591
 20
145.13826524889149
 40
0.1638122668137421
  0
CIRCLE
  8
_1-0_
  6
CONTINUOUS
 62
    7
 10
138.55160275021115
 20
144.81894415778083
 40
0.1638122668137421
  0
CIRCLE
  8
_1-0_
  6
CONTINUOUS
 62
    7
 10
141.66648658546242
 20
144.36500343116555
 40
0.150517015843778
  0
CIRCLE
  8
_1-0_
  6
CONTINUOUS
 62
    7
 10
126.84336894267315
 20
141.30647401551943
 40
0.1638122668137421
  0
CIRCLE
  8
_1-0_
  6
CONTINUOUS
 62
    7
 10
127.37555014120566
 20
142.26441254486909
 40
0.1638122668137421
  0
CIRCLE
  8
_1-0_
  6
CONTINUOUS
 62
    7
 10
129.39788818359375
 20
141.62579510663008
 40
0.1638122668137421
  0
CIRCLE
  8
_1-0_
  6
CONTINUOUS
 62
    7
 10
134.71981151683912
 20
143.5416721653294
 40
0.1638122668137421
  0
CIRCLE
  8
_1-0_
  6
CONTINUOUS
 62
    7
 10
134.29405418602198
 20
143.7545446447424
 40
0.1638122668137421
  0
CIRCLE
  8
_1-0_
  6
CONTINUOUS
 62
    7
 10
131.10089276288008
 20
142.37086115656672
 40
0.1638122668137421
  0
CIRCLE
  8
_1-0_
  6
CONTINUOUS
 62
    7
 10
129.71719690271325
 20
143.43524829761404
 40
0.1638122668137421
  0
CIRCLE
  8
_1-0_
  6
CONTINUOUS
 62
    7
 10
132.16527990392737
 20
143.11592720650339
 40
0.1638122668137421
  0
CIRCLE
  8
_1-0_
  6
CONTINUOUS
 62
    7
 10
135.28017611116977
 20
142.66199885187922
 40
0.150517015843778
  0
CIRCLE
  8
_1-0_
  6
CONTINUOUS
 62
    7
 10
115.24155900285051
 20
134.60085482210727
 40
0.1638122668137421
  0
CIRCLE
  8
_1-0_
  6
CONTINUOUS
 62
    7
 10
115.77375257337417
 20
135.55879335145693
 40
0.1638122668137421
  0
CIRCLE
  8
_1-0_
  6
CONTINUOUS
 62
    7
 10
117.79609061576225
 20
134.92017591321792
 40
0.1638122668137421
  0
CIRCLE
  8
_1-0_
  6
CONTINUOUS
 62
    7
 10
123.1180139490076
 20
136.83605297191724
 40
0.1638122668137421
  0
CIRCLE
  8
_1-0_
  6
CONTINUOUS
 62
    7
 10
122.69225661819047
 20
137.04892545133023
 40
0.1638122668137421
  0
CIRCLE
  8
_1-0_
  6
CONTINUOUS
 62
    7
 10
119.4991075670397
 20
135.66524196315456
 40
0.1638122668137421
  0
CIRCLE
  8
_1-0_
  6
CONTINUOUS
 62
    7
 10
118.11539933488176
 20
136.72962910420188
 40
0.1638122668137421
  0
CIRCLE
  8
_1-0_
  6
CONTINUOUS
 62
    7
 10
120.56349470808701
 20
136.41030801309122
 40
0.1638122668137421
  0
CIRCLE
  8
_1-0_
  6
CONTINUOUS
 62
    7
 10
123.67837854333827
 20
135.95637965846706
 40
0.150517015843778
  0
CIRCLE
  8
_1-0_
  6
CONTINUOUS
 62
    7
 10
118.64759290540542
 20
138.75195477459883
 40
0.1638122668137421
  0
CIRCLE
  8
_1-0_
  6
CONTINUOUS
 62
    7
 10
119.17978647592906
 20
139.70989330394849
 40
0.1638122668137421
  0
CIRCLE
  8
_1-0_
  6
CONTINUOUS
 62
    7
 10
121.20212451831715
 20
139.07127586570948
 40
0.1638122668137421
  0
CIRCLE
  8
_1-0_
  6
CONTINUOUS
 62
    7
 10
126.5240478515625
 20
140.9871529244088
 40
0.1638122668137421
  0
CIRCLE
  8
_1-0_
  6
CONTINUOUS
 62
    7
 10
126.09829052074537
 20
141.2000254038218
 40
0.1638122668137421
  0
CIRCLE
  8
_1-0_
  6
CONTINUOUS
 62
    7
 10
122.9051414695946
 20
139.81634191564612
 40
0.1638122668137421
  0
CIRCLE
  8
_1-0_
  6
CONTINUOUS
 62
    7
 10
121.52143323743667
 20
140.88072905669341
 40
0.1638122668137421
  0
CIRCLE
  8
_1-0_
  6
CONTINUOUS
 62
    7
 10
123.9695286106419
 20
140.56140796558279
 40
0.1638122668137421
  0
CIRCLE
  8
_1-0_
  6
CONTINUOUS
 62
    7
 10
127.08441244589316
 20
140.10747961095862
 40
0.150517015843778
  0
CIRCLE
  8
_1-0_
  6
CONTINUOUS
 62
    7
 10
155.15600256017737
 20
153.54690139358109
 40
0.1638122668137421
  0
CIRCLE
  8
_1-0_
  6
CONTINUOUS
 62
    7
 10
155.6881837587099
 20
154.50483992293076
 40
0.1638122668137421
  0
CIRCLE
  8
_1-0_
  6
CONTINUOUS
 62
    7
 10
157.71052180109797
 20
153.86622248469172
 40
0.1638122668137421
  0
CIRCLE
  8
_1-0_
  6
CONTINUOUS
 62
    7
 10
163.03244513434333
 20
155.78209954339107
 40
0.1638122668137421
  0
CIRCLE
  8
_1-0_
  6
CONTINUOUS
 62
    7
 10
162.6066878035262
 20
155.99497202280406
 40
0.1638122668137421
  0
CIRCLE
  8
_1-0_
  6
CONTINUOUS
 62
    7
 10
159.4135263803843
 20
154.61128853462839
 40
0.1638122668137421
  0
CIRCLE
  8
_1-0_
  6
CONTINUOUS
 62
    7
 10
158.0298305202175
 20
155.67567567567568
 40
0.1638122668137421
  0
CIRCLE
  8
_1-0_
  6
CONTINUOUS
 62
    7
 10
160.47791352143159
 20
155.35635458456505
 40
0.1638122668137421
  0
CIRCLE
  8
_1-0_
  6
CONTINUOUS
 62
    7
 10
163.59280972867398
 20
154.90242622994089
 40
0.150517015843778
  0
CIRCLE
  8
_1-0_
  6
CONTINUOUS
 62
    7
 10
141.31899447054477
 20
148.01209320893159
 40
0.1638122668137421
  0
CIRCLE
  8
_1-0_
  6
CONTINUOUS
 62
    7
 10
141.85118804106841
 20
148.97003173828125
 40
0.1638122668137421
  0
CIRCLE
  8
_1-0_
  6
CONTINUOUS
 62
    7
 10
143.87352608345651
 20
148.33141430004224
 40
0.1638122668137421
  0
CIRCLE
  8
_1-0_
  6
CONTINUOUS
 62
    7
 10
149.19544941670188
 20
150.24729135874156
 40
0.1638122668137421
  0
CIRCLE
  8
_1-0_
  6
CONTINUOUS
 62
    7
 10
148.76969208588471
 20
150.46016383815456
 40
0.1638122668137421
  0
CIRCLE
  8
_1-0_
  6
CONTINUOUS
 62
    7
 10
145.57654303473396
 20
149.07648034997888
 40
0.1638122668137421
  0
CIRCLE
  8
_1-0_
  6
CONTINUOUS
 62
    7
 10
144.19283480257602
 20
150.1408674910262
 40
0.1638122668137421
  0
CIRCLE
  8
_1-0_
  6
CONTINUOUS
 62
    7
 10
146.64093017578125
 20
149.82154639991555
 40
0.1638122668137421
  0
CIRCLE
  8
_1-0_
  6
CONTINUOUS
 62
    7
 10
149.75581401103253
 20
149.36761804529138
 40
0.150517015843778
  0
CIRCLE
  8
_1-0_
  6
CONTINUOUS
 62
    7
 10
150.47270903716216
 20
150.88593354096284
 40
0.1638122668137421
  0
CIRCLE
  8
_1-0_
  6
CONTINUOUS
 62
    7
 10
151.00489023569469
 20
151.8438720703125
 40
0.1638122668137421
  0
CIRCLE
  8
_1-0_
  6
CONTINUOUS
 62
    7
 10
153.02722827808279
 20
151.20525463207349
 40
0.1638122668137421
  0
CIRCLE
  8
_1-0_
  6
CONTINUOUS
 62
    7
 10
158.34915161132812
 20
153.12113169077281
 40
0.1638122668137421
  0
CIRCLE
  8
_1-0_
  6
CONTINUOUS
 62
    7
 10
157.92339428051099
 20
153.33400417018581
 40
0.1638122668137421
  0
CIRCLE
  8
_1-0_
  6
CONTINUOUS
 62
    7
 10
154.73023285736909
 20
151.95032068201013
 40
0.1638122668137421
  0
CIRCLE
  8
_1-0_
  6
CONTINUOUS
 62
    7
 10
153.34653699720229
 20
153.01470782305745
 40
0.1638122668137421
  0
CIRCLE
  8
_1-0_
  6
CONTINUOUS
 62
    7
 10
155.79461999841638
 20
152.6953867319468
 40
0.1638122668137421
  0
CIRCLE
  8
_1-0_
  6
CONTINUOUS
 62
    7
 10
158.9095162056588
 20
152.24145837732263
 40
0.150517015843778
  0
CIRCLE
  8
_1-0_
  6
CONTINUOUS
 62
    7
 10
147.27954761402029
 20
151.41812711148648
 40
0.1638122668137421
  0
CIRCLE
  8
_1-0_
  6
CONTINUOUS
 62
    7
 10
147.81174118454393
 20
152.37606564083615
 40
0.1638122668137421
  0
CIRCLE
  8
_1-0_
  6
CONTINUOUS
 62
    7
 10
149.834079226932
 20
151.73744820259714
 40
0.1638122668137421
  0
CIRCLE
  8
_1-0_
  6
CONTINUOUS
 62
    7
 10
155.15600256017737
 20
153.65332526129646
 40
0.1638122668137421
  0
CIRCLE
  8
_1-0_
  6
CONTINUOUS
 62
    7
 10
154.73024522936024
 20
153.86619774070948
 40
0.1638122668137421
  0
CIRCLE
  8
_1-0_
  6
CONTINUOUS
 62
    7
 10
151.53709617820948
 20
152.4825142525338
 40
0.1638122668137421
  0
CIRCLE
  8
_1-0_
  6
CONTINUOUS
 62
    7
 10
150.15338794605154
 20
153.54690139358109
 40
0.1638122668137421
  0
CIRCLE
  8
_1-0_
  6
CONTINUOUS
 62
    7
 10
152.60148331925677
 20
153.22758030247044
 40
0.1638122668137421
  0
CIRCLE
  8
_1-0_
  6
CONTINUOUS
 62
    7
 10
155.71636715450802
 20
152.7736519478463
 40
0.150517015843778
  0
CIRCLE
  8
_1-0_
  6
CONTINUOUS
 62
    7
 10
133.54898813608531
 20
144.81894415778083
 40
0.1638122668137421
  0
CIRCLE
  8
_1-0_
  6
CONTINUOUS
 62
    7
 10
134.08116933461784
 20
145.77689505912164
 40
0.1638122668137421
  0
CIRCLE
  8
_1-0_
  6
CONTINUOUS
 62
    7
 10
136.10350737700591
 20
145.13825287690034
 40
0.1638122668137421
  0
CIRCLE
  8
_1-0_
  6
CONTINUOUS
 62
    7
 10
141.42543071025128
 20
147.05414230759081
 40
0.1638122668137421
  0
CIRCLE
  8
_1-0_
  6
CONTINUOUS
 62
    7
 10
140.99967337943414
 20
147.2670147870038
 40
0.1638122668137421
  0
CIRCLE
  8
_1-0_
  6
CONTINUOUS
 62
    7
 10
137.80651195629224
 20
145.88331892683701
 40
0.1638122668137421
  0
CIRCLE
  8
_1-0_
  6
CONTINUOUS
 62
    7
 10
136.42281609612542
 20
146.94771843987544
 40
0.1638122668137421
  0
CIRCLE
  8
_1-0_
  6
CONTINUOUS
 62
    7
 10
138.87089909733953
 20
146.62839734876479
 40
0.1638122668137421
  0
CIRCLE
  8
_1-0_
  6
CONTINUOUS
 62
    7
 10
141.98579530458193
 20
146.17445662214951
 40
0.150517015843778
  0
CIRCLE
  8
_1-0_
  6
CONTINUOUS
 62
    7
 10
176.6565683725718
 20
163.3392333984375
 40
0.1638122668137421
  0
CIRCLE
  8
_1-0_
  6
CONTINUOUS
 62
    7
 10
177.18876194309544
 20
164.29717192778716
 40
0.1638122668137421
  0
CIRCLE
  8
_1-0_
  6
CONTINUOUS
 62
    7
 10
179.21109998548354
 20
163.65855448954815
 40
0.1638122668137421
  0
CIRCLE
  8
_1-0_
  6
CONTINUOUS
 62
    7
 10
184.53302331872891
 20
165.57443154824747
 40
0.1638122668137421
  0
CIRCLE
  8
_1-0_
  6
CONTINUOUS
 62
    7
 10
184.10726598791175
 20
165.78730402766047
 40
0.1638122668137421
  0
CIRCLE
  8
_1-0_
  6
CONTINUOUS
 62
    7
 10
180.91411693676099
 20
164.40362053948482
 40
0.1638122668137421
  0
CIRCLE
  8
_1-0_
  6
CONTINUOUS
 62
    7
 10
179.53040870460305
 20
165.46800768053211
 40
0.1638122668137421
  0
CIRCLE
  8
_1-0_
  6
CONTINUOUS
 62
    7
 10
181.97850407780828
 20
165.14868658942146
 40
0.1638122668137421
  0
CIRCLE
  8
_1-0_
  6
CONTINUOUS
 62
    7
 10
185.09338791305956
 20
164.69475823479732
 40
0.150517015843778
  0
CIRCLE
  8
_1-0_
  6
CONTINUOUS
 62
    7
 10
169.63162808804898
 20
160.7847141575169
 40
0.1638122668137421
  0
CIRCLE
  8
_1-0_
  6
CONTINUOUS
 62
    7
 10
170.16382165857266
 20
161.74265268686656
 40
0.1638122668137421
  0
CIRCLE
  8
_1-0_
  6
CONTINUOUS
 62
    7
 10
172.18615970096073
 20
161.10403524862755
 40
0.1638122668137421
  0
CIRCLE
  8
_1-0_
  6
CONTINUOUS
 62
    7
 10
177.50808303420609
 20
163.01991230732688
 40
0.1638122668137421
  0
CIRCLE
  8
_1-0_
  6
CONTINUOUS
 62
    7
 10
177.08232570338893
 20
163.23278478673987
 40
0.1638122668137421
  0
CIRCLE
  8
_1-0_
  6
CONTINUOUS
 62
    7
 10
173.88917665223818
 20
161.84910129856419
 40
0.1638122668137421
  0
CIRCLE
  8
_1-0_
  6
CONTINUOUS
 62
    7
 10
172.50546842008023
 20
162.91348843961148
 40
0.1638122668137421
  0
CIRCLE
  8
_1-0_
  6
CONTINUOUS
 62
    7
 10
174.9535637932855
 20
162.59416734850086
 40
0.1638122668137421
  0
CIRCLE
  8
_1-0_
  6
CONTINUOUS
 62
    7
 10
178.06844762853675
 20
162.14023899387669
 40
0.150517015843778
  0
CIRCLE
  8
_1-0_
  6
CONTINUOUS
 62
    7
 10
161.22297957136826
 20
156.95292292414484
 40
0.1638122668137421
  0
CIRCLE
  8
_1-0_
  6
CONTINUOUS
 62
    7
 10
161.7551731418919
 20
157.91087382548565
 40
0.1638122668137421
  0
CIRCLE
  8
_1-0_
  6
CONTINUOUS
 62
    7
 10
163.77751118428
 20
157.27223164326438
 40
0.1638122668137421
  0
CIRCLE
  8
_1-0_
  6
CONTINUOUS
 62
    7
 10
169.09943451752534
 20
159.18812107395482
 40
0.1638122668137421
  0
CIRCLE
  8
_1-0_
  6
CONTINUOUS
 62
    7
 10
168.6736771867082
 20
159.40099355336784
 40
0.1638122668137421
  0
CIRCLE
  8
_1-0_
  6
CONTINUOUS
 62
    7
 10
165.48052813555745
 20
158.01729769320102
 40
0.1638122668137421
  0
CIRCLE
  8
_1-0_
  6
CONTINUOUS
 62
    7
 10
164.09681990339951
 20
159.08169720623945
 40
0.1638122668137421
  0
CIRCLE
  8
_1-0_
  6
CONTINUOUS
 62
    7
 10
166.54491527660474
 20
158.7623761151288
 40
0.1638122668137421
  0
CIRCLE
  8
_1-0_
  6
CONTINUOUS
 62
    7
 10
169.65979911185602
 20
158.30843538851352
 40
0.150517015843778
  0
CIRCLE
  8
_1-0_
  6
CONTINUOUS
 62
    7
 10
188.36480218010982
 20
168.23539940086573
 40
0.1638122668137421
  0
CIRCLE
  8
_1-0_
  6
CONTINUOUS
 62
    7
 10
188.89699575063347
 20
169.19333793021539
 40
0.1638122668137421
  0
CIRCLE
  8
_1-0_
  6
CONTINUOUS
 62
    7
 10
190.91933379302154
 20
168.55472049197635
 40
0.1638122668137421
  0
CIRCLE
  8
_1-0_
  6
CONTINUOUS
 62
    7
 10
196.2412571262669
 20
170.47059755067568
 40
0.1638122668137421
  0
CIRCLE
  8
_1-0_
  6
CONTINUOUS
 62
    7
 10
195.81549979544977
 20
170.6834700300887
 40
0.1638122668137421
  0
CIRCLE
  8
_1-0_
  6
CONTINUOUS
 62
    7
 10
192.62235074429898
 20
169.29978654191302
 40
0.1638122668137421
  0
CIRCLE
  8
_1-0_
  6
CONTINUOUS
 62
    7
 10
191.23864251214107
 20
170.36417368296031
 40
0.1638122668137421
  0
CIRCLE
  8
_1-0_
  6
CONTINUOUS
 62
    7
 10
193.6867378853463
 20
170.04485259184966
 40
0.1638122668137421
  0
CIRCLE
  8
_1-0_
  6
CONTINUOUS
 62
    7
 10
196.80162172059755
 20
169.59092423722552
 40
0.150517015843778
  0
CIRCLE
  8
_1-0_
  6
CONTINUOUS
 62
    7
 10
182.29780042493667
 20
167.17102463180956
 40
0.1638122668137421
  0
CIRCLE
  8
_1-0_
  6
CONTINUOUS
 62
    7
 10
182.82999399546031
 20
168.12897553315034
 40
0.1638122668137421
  0
CIRCLE
  8
_1-0_
  6
CONTINUOUS
 62
    7
 10
184.85233203784841
 20
167.49033335092906
 40
0.1638122668137421
  0
CIRCLE
  8
_1-0_
  6
CONTINUOUS
 62
    7
 10
190.17425537109375
 20
169.40622278161953
 40
0.1638122668137421
  0
CIRCLE
  8
_1-0_
  6
CONTINUOUS
 62
    7
 10
189.74849804027662
 20
169.61909526103253
 40
0.1638122668137421
  0
CIRCLE
  8
_1-0_
  6
CONTINUOUS
 62
    7
 10
186.55534898912586
 20
168.23539940086573
 40
0.1638122668137421
  0
CIRCLE
  8
_1-0_
  6
CONTINUOUS
 62
    7
 10
185.17164075696792
 20
169.29979891390414
 40
0.1638122668137421
  0
CIRCLE
  8
_1-0_
  6
CONTINUOUS
 62
    7
 10
187.61973613017315
 20
168.98047782279352
 40
0.1638122668137421
  0
CIRCLE
  8
_1-0_
  6
CONTINUOUS
 62
    7
 10
190.73461996542443
 20
168.52653709617823
 40
0.150517015843778
  0
CIRCLE
  8
_1-0_
  6
CONTINUOUS
 62
    7
 10
189.74851041226773
 20
170.47060992266682
 40
0.1638122668137421
  0
CIRCLE
  8
_1-0_
  6
CONTINUOUS
 62
    7
 10
190.28069161080026
 20
171.4285608240076
 40
0.1638122668137421
  0
CIRCLE
  8
_1-0_
  6
CONTINUOUS
 62
    7
 10
192.30302965318836
 20
170.78991864178633
 40
0.1638122668137421
  0
CIRCLE
  8
_1-0_
  6
CONTINUOUS
 62
    7
 10
197.6249529864337
 20
172.70580807247677
 40
0.1638122668137421
  0
CIRCLE
  8
_1-0_
  6
CONTINUOUS
 62
    7
 10
197.19919565561656
 20
172.91868055188979
 40
0.1638122668137421
  0
CIRCLE
  8
_1-0_
  6
CONTINUOUS
 62
    7
 10
194.00603423247466
 20
171.53498469172297
 40
0.1638122668137421
  0
CIRCLE
  8
_1-0_
  6
CONTINUOUS
 62
    7
 10
192.62233837230787
 20
172.59938420476141
 40
0.1638122668137421
  0
CIRCLE
  8
_1-0_
  6
CONTINUOUS
 62
    7
 10
195.07042137352198
 20
172.28006311365078
 40
0.1638122668137421
  0
CIRCLE
  8
_1-0_
  6
CONTINUOUS
 62
    7
 10
198.18531758076438
 20
171.82612238703547
 40
0.150517015843778
  0
CIRCLE
  8
_1-0_
  6
CONTINUOUS
 62
    7
 10
172.93121337890625
 20
163.12636091902451
 40
0.1638122668137421
  0
CIRCLE
  8
_1-0_
  6
CONTINUOUS
 62
    7
 10
173.4634069494299
 20
164.08429944837417
 40
0.1638122668137421
  0
CIRCLE
  8
_1-0_
  6
CONTINUOUS
 62
    7
 10
175.485744991818
 20
163.44568201013516
 40
0.1638122668137421
  0
CIRCLE
  8
_1-0_
  6
CONTINUOUS
 62
    7
 10
180.80766832506336
 20
165.36155906883448
 40
0.1638122668137421
  0
CIRCLE
  8
_1-0_
  6
CONTINUOUS
 62
    7
 10
180.3819109942462
 20
165.57443154824747
 40
0.1638122668137421
  0
CIRCLE
  8
_1-0_
  6
CONTINUOUS
 62
    7
 10
177.18876194309544
 20
164.1907480600718
 40
0.1638122668137421
  0
CIRCLE
  8
_1-0_
  6
CONTINUOUS
 62
    7
 10
175.8050537109375
 20
165.25513520111909
 40
0.1638122668137421
  0
CIRCLE
  8
_1-0_
  6
CONTINUOUS
 62
    7
 10
178.25314908414273
 20
164.93581411000847
 40
0.1638122668137421
  0
CIRCLE
  8
_1-0_
  6
CONTINUOUS
 62
    7
 10
181.36803291939401
 20
164.4818857553843
 40
0.150517015843778
  0
CIRCLE
  8
_1-0_
  6
CONTINUOUS
 62
    7
 10
171.65395375844597
 20
159.08169720623945
 40
0.1638122668137421
  0
CIRCLE
  8
_1-0_
  6
CONTINUOUS
 62
    7
 10
172.18614732896961
 20
160.03964810758023
 40
0.1638122668137421
  0
CIRCLE
  8
_1-0_
  6
CONTINUOUS
 62
    7
 10
174.20848537135768
 20
159.40100592535896
 40
0.1638122668137421
  0
CIRCLE
  8
_1-0_
  6
CONTINUOUS
 62
    7
 10
179.53040870460305
 20
161.31689535604943
 40
0.1638122668137421
  0
CIRCLE
  8
_1-0_
  6
CONTINUOUS
 62
    7
 10
179.10465137378591
 20
161.52976783546242
 40
0.1638122668137421
  0
CIRCLE
  8
_1-0_
  6
CONTINUOUS
 62
    7
 10
175.91150232263516
 20
160.14607197529563
 40
0.1638122668137421
  0
CIRCLE
  8
_1-0_
  6
CONTINUOUS
 62
    7
 10
174.52779409047722
 20
161.21047148833404
 40
0.1638122668137421
  0
CIRCLE
  8
_1-0_
  6
CONTINUOUS
 62
    7
 10
176.97588946368245
 20
160.89115039722341
 40
0.1638122668137421
  0
CIRCLE
  8
_1-0_
  6
CONTINUOUS
 62
    7
 10
180.0907732989337
 20
160.43720967060813
 40
0.150517015843778
  0
CIRCLE
  8
_1-0_
  6
CONTINUOUS
 62
    7
 10
204.18344446130703
 20
169.21527347049198
 40
0.1638122668137421
  0
CIRCLE
  8
_1-0_
  6
CONTINUOUS
 62
    7
 10
206.63153983451227
 20
168.89595237938136
 40
0.1638122668137421
  0
CIRCLE
  8
_1-0_
  6
CONTINUOUS
 62
    7
 10
205.46070408176732
 20
169.10882485879435
 40
0.1638122668137421
  0
CIRCLE
  8
_1-0_
  6
CONTINUOUS
 62
    7
 10
205.03494675095018
 20
169.32169733820734
 40
0.1638122668137421
  0
CIRCLE
  8
_1-0_
  6
CONTINUOUS
 62
    7
 10
206.021068676098
 20
168.22915154534419
 40
0.150517015843778
  0
CIRCLE
  8
_1-0_
  6
CONTINUOUS
 62
    7
 10
200.23895676071581
 20
171.77918305268159
 40
0.1638122668137421
  0
CIRCLE
  8
_1-0_
  6
CONTINUOUS
 62
    7
 10
202.68705213392104
 20
171.45986196157097
 40
0.1638122668137421
  0
CIRCLE
  8
_1-0_
  6
CONTINUOUS
 62
    7
 10
201.51621638117612
 20
171.67273444098396
 40
0.1638122668137421
  0
CIRCLE
  8
_1-0_
  6
CONTINUOUS
 62
    7
 10
201.09045905035896
 20
171.88560692039698
 40
0.1638122668137421
  0
CIRCLE
  8
_1-0_
  6
CONTINUOUS
 62
    7
 10
202.07658097550677
 20
170.7930611275338
 40
0.150517015843778
  0
CIRCLE
  8
_1-0_
  6
CONTINUOUS
 62
    7
 10
204.18344446130703
 20
170.20139539563979
 40
0.1638122668137421
  0
CIRCLE
  8
_1-0_
  6
CONTINUOUS
 62
    7
 10
206.63153983451227
 20
169.88207430452914
 40
0.1638122668137421
  0
CIRCLE
  8
_1-0_
  6
CONTINUOUS
 62
    7
 10
205.46070408176732
 20
170.09494678394216
 40
0.1638122668137421
  0
CIRCLE
  8
_1-0_
  6
CONTINUOUS
 62
    7
 10
205.03494675095018
 20
170.30781926335516
 40
0.1638122668137421
  0
CIRCLE
  8
_1-0_
  6
CONTINUOUS
 62
    7
 10
206.021068676098
 20
169.21527347049198
 40
0.150517015843778
  0
CIRCLE
  8
_1-0_
  6
CONTINUOUS
 62
    7
 10
204.57788828256969
 20
166.65135151631125
 40
0.1638122668137421
  0
CIRCLE
  8
_1-0_
  6
CONTINUOUS
 62
    7
 10
207.02598365577492
 20
166.3320304252006
 40
0.1638122668137421
  0
CIRCLE
  8
_1-0_
  6
CONTINUOUS
 62
    7
 10
205.85514790303
 20
166.54490290461359
 40
0.1638122668137421
  0
CIRCLE
  8
_1-0_
  6
CONTINUOUS
 62
    7
 10
205.42939057221284
 20
166.75777538402662
 40
0.1638122668137421
  0
CIRCLE
  8
_1-0_
  6
CONTINUOUS
 62
    7
 10
206.41551249736065
 20
165.66522959116344
 40
0.150517015843778
  0
CIRCLE
  8
_1-0_
  6
CONTINUOUS
 62
    7
 10
211.05275746938347
 20
165.58927793760557
 40
0.1638122668137421
  0
CIRCLE
  8
_1-0_
  6
CONTINUOUS
 62
    7
 10
213.50087758657097
 20
165.26995684649495
 40
0.1638122668137421
  0
CIRCLE
  8
_1-0_
  6
CONTINUOUS
 62
    7
 10
212.33004183382602
 20
165.48282932590794
 40
0.1638122668137421
  0
CIRCLE
  8
_1-0_
  6
CONTINUOUS
 62
    7
 10
211.90427213101773
 20
165.69570180532097
 40
0.1638122668137421
  0
CIRCLE
  8
_1-0_
  6
CONTINUOUS
 62
    7
 10
212.89039405616555
 20
164.60315601245779
 40
0.150517015843778
  0
CIRCLE
  8
_1-0_
  6
CONTINUOUS
 62
    7
 10
213.09735272381758
 20
164.77143983583193
 40
0.1638122668137421
  0
CIRCLE
  8
_1-0_
  6
CONTINUOUS
 62
    7
 10
215.54547284100508
 20
164.4521187447213
 40
0.1638122668137421
  0
CIRCLE
  8
_1-0_
  6
CONTINUOUS
 62
    7
 10
214.37463708826016
 20
164.6649912241343
 40
0.1638122668137421
  0
CIRCLE
  8
_1-0_
  6
CONTINUOUS
 62
    7
 10
213.94886738545188
 20
164.87786370354732
 40
0.1638122668137421
  0
CIRCLE
  8
_1-0_
  6
CONTINUOUS
 62
    7
 10
214.93498931059966
 20
163.78531791068414
 40
0.150517015843778
  0
CIRCLE
  8
_1-0_
  6
CONTINUOUS
 62
    7
 10
208.94001728779563
 20
167.70200574720229
 40
0.1638122668137421
  0
CIRCLE
  8
_1-0_
  6
CONTINUOUS
 62
    7
 10
211.38813740498313
 20
167.38268465609164
 40
0.1638122668137421
  0
CIRCLE
  8
_1-0_
  6
CONTINUOUS
 62
    7
 10
210.21730165223818
 20
167.59555713550466
 40
0.1638122668137421
  0
CIRCLE
  8
_1-0_
  6
CONTINUOUS
 62
    7
 10
209.79153194942992
 20
167.80842961491766
 40
0.1638122668137421
  0
CIRCLE
  8
_1-0_
  6
CONTINUOUS
 62
    7
 10
210.77765387457771
 20
166.71588382205448
 40
0.150517015843778
  0
CIRCLE
  8
_1-0_
  6
CONTINUOUS
 62
    7
 10
214.52854465793919
 20
165.86188239020271
 40
0.1638122668137421
  0
CIRCLE
  8
_1-0_
  6
CONTINUOUS
 62
    7
 10
216.97666477512669
 20
165.54256129909206
 40
0.1638122668137421
  0
CIRCLE
  8
_1-0_
  6
CONTINUOUS
 62
    7
 10
215.80582902238177
 20
165.75543377850508
 40
0.1638122668137421
  0
CIRCLE
  8
_1-0_
  6
CONTINUOUS
 62
    7
 10
215.38005931957349
 20
165.96830625791807
 40
0.1638122668137421
  0
CIRCLE
  8
_1-0_
  6
CONTINUOUS
 62
    7
 10
216.3661812447213
 20
164.8757604650549
 40
0.150517015843778
  0
CIRCLE
  8
_1-0_
  6
CONTINUOUS
 62
    7
 10
217.73175213788008
 20
163.68099728146115
 40
0.1638122668137421
  0
CIRCLE
  8
_1-0_
  6
CONTINUOUS
 62
    7
 10
220.17982276710305
 20
163.36167619035052
 40
0.1638122668137421
  0
CIRCLE
  8
_1-0_
  6
CONTINUOUS
 62
    7
 10
219.00898701435813
 20
163.57454866976352
 40
0.1638122668137421
  0
CIRCLE
  8
_1-0_
  6
CONTINUOUS
 62
    7
 10
218.58324205553211
 20
163.78742114917654
 40
0.1638122668137421
  0
CIRCLE
  8
_1-0_
  6
CONTINUOUS
 62
    7
 10
219.56936398067992
 20
162.69487535631336
 40
0.150517015843778
  0
CIRCLE
  8
_1-0_
  6
CONTINUOUS
 62
    7
 10
218.4814453125
 20
162.59055472709039
 40
0.1638122668137421
  0
CIRCLE
  8
_1-0_
  6
CONTINUOUS
 62
    7
 10
220.929515941723
 20
162.27123363597974
 40
0.1638122668137421
  0
CIRCLE
  8
_1-0_
  6
CONTINUOUS
 62
    7
 10
219.75868018897805
 20
162.48410611539273
 40
0.1638122668137421
  0
CIRCLE
  8
_1-0_
  6
CONTINUOUS
 62
    7
 10
219.33293523015203
 20
162.69697859480576
 40
0.1638122668137421
  0
CIRCLE
  8
_1-0_
  6
CONTINUOUS
 62
    7
 10
220.31905715529984
 20
161.60443280194258
 40
0.150517015843778
  0
CIRCLE
  8
_1-0_
  6
CONTINUOUS
 62
    7
 10
217.18654323268584
 20
162.045333449905
 40
0.1638122668137421
  0
CIRCLE
  8
_1-0_
  6
CONTINUOUS
 62
    7
 10
219.6346138619088
 20
161.72601235879435
 40
0.1638122668137421
  0
CIRCLE
  8
_1-0_
  6
CONTINUOUS
 62
    7
 10
218.46377810916385
 20
161.93888483820734
 40
0.1638122668137421
  0
CIRCLE
  8
_1-0_
  6
CONTINUOUS
 62
    7
 10
218.03803315033784
 20
162.15175731762037
 40
0.1638122668137421
  0
CIRCLE
  8
_1-0_
  6
CONTINUOUS
 62
    7
 10
219.02415507548565
 20
161.05921152475719
 40
0.150517015843778
  0
CIRCLE
  8
_1-0_
  6
CONTINUOUS
 62
    7
 10
214.86931878167232
 20
162.72685695338893
 40
0.1638122668137421
  0
CIRCLE
  8
_1-0_
  6
CONTINUOUS
 62
    7
 10
217.31743889885982
 20
162.40753586227831
 40
0.1638122668137421
  0
CIRCLE
  8
_1-0_
  6
CONTINUOUS
 62
    7
 10
216.14660314611487
 20
162.6204083416913
 40
0.1638122668137421
  0
CIRCLE
  8
_1-0_
  6
CONTINUOUS
 62
    7
 10
215.72083344330659
 20
162.83328082110432
 40
0.1638122668137421
  0
CIRCLE
  8
_1-0_
  6
CONTINUOUS
 62
    7
 10
216.7069553684544
 20
161.74073502824115
 40
0.150517015843778
  0
CIRCLE
  8
_1-0_
  6
CONTINUOUS
 62
    7
 10
210.78017776076859
 20
167.22494176916175
 40
0.1638122668137421
  0
CIRCLE
  8
_1-0_
  6
CONTINUOUS
 62
    7
 10
213.22824838999156
 20
166.90562067805109
 40
0.1638122668137421
  0
CIRCLE
  8
_1-0_
  6
CONTINUOUS
 62
    7
 10
212.05741263724664
 20
167.11849315746412
 40
0.1638122668137421
  0
CIRCLE
  8
_1-0_
  6
CONTINUOUS
 62
    7
 10
211.63166767842063
 20
167.33136563687711
 40
0.1638122668137421
  0
CIRCLE
  8
_1-0_
  6
CONTINUOUS
 62
    7
 10
212.61778960356841
 20
166.23881984401393
 40
0.150517015843778
  0
CIRCLE
  8
_1-0_
  6
CONTINUOUS
 62
    7
 10
208.53114772487334
 20
165.38481841216216
 40
0.1638122668137421
  0
CIRCLE
  8
_1-0_
  6
CONTINUOUS
 62
    7
 10
210.9792183540963
 20
165.06549732105154
 40
0.1638122668137421
  0
CIRCLE
  8
_1-0_
  6
CONTINUOUS
 62
    7
 10
209.80838260135135
 20
165.27836980046453
 40
0.1638122668137421
  0
CIRCLE
  8
_1-0_
  6
CONTINUOUS
 62
    7
 10
209.38263764252534
 20
165.49124227987755
 40
0.1638122668137421
  0
CIRCLE
  8
_1-0_
  6
CONTINUOUS
 62
    7
 10
210.36875956767315
 20
164.39869648701438
 40
0.150517015843778
  0
CIRCLE
  8
_1-0_
  6
CONTINUOUS
 62
    7
 10
207.57697028082771
 20
169.2013673524599
 40
0.1638122668137421
  0
CIRCLE
  8
_1-0_
  6
CONTINUOUS
 62
    7
 10
210.02509039801521
 20
168.88204626134925
 40
0.1638122668137421
  0
CIRCLE
  8
_1-0_
  6
CONTINUOUS
 62
    7
 10
208.85425464527029
 20
169.09491874076227
 40
0.1638122668137421
  0
CIRCLE
  8
_1-0_
  6
CONTINUOUS
 62
    7
 10
208.42848494246201
 20
169.30779122017526
 40
0.1638122668137421
  0
CIRCLE
  8
_1-0_
  6
CONTINUOUS
 62
    7
 10
209.41460686760982
 20
168.21524542731208
 40
0.150517015843778
  0
CIRCLE
  8
_1-0_
  6
CONTINUOUS
 62
    7
 10
230.27185388513516
 20
157.41094640783362
 40
0.1638122668137421
  0
CIRCLE
  8
_1-0_
  6
CONTINUOUS
 62
    7
 10
232.71997400232266
 20
157.09162531672297
 40
0.1638122668137421
  0
CIRCLE
  8
_1-0_
  6
CONTINUOUS
 62
    7
 10
231.54913824957771
 20
157.30449779613599
 40
0.1638122668137421
  0
CIRCLE
  8
_1-0_
  6
CONTINUOUS
 62
    7
 10
231.12336854676943
 20
157.51737027554898
 40
0.1638122668137421
  0
CIRCLE
  8
_1-0_
  6
CONTINUOUS
 62
    7
 10
232.10949047191724
 20
156.42482448268581
 40
0.150517015843778
  0
CIRCLE
  8
_1-0_
  6
CONTINUOUS
 62
    7
 10
225.43301968961151
 20
157.88801038587417
 40
0.1638122668137421
  0
CIRCLE
  8
_1-0_
  6
CONTINUOUS
 62
    7
 10
227.88109031883448
 20
157.56868929476352
 40
0.1638122668137421
  0
CIRCLE
  8
_1-0_
  6
CONTINUOUS
 62
    7
 10
226.71025456608953
 20
157.78156177417654
 40
0.1638122668137421
  0
CIRCLE
  8
_1-0_
  6
CONTINUOUS
 62
    7
 10
226.28450960726352
 20
157.99443425358953
 40
0.1638122668137421
  0
CIRCLE
  8
_1-0_
  6
CONTINUOUS
 62
    7
 10
227.27063153241133
 20
156.90188846072635
 40
0.150517015843778
  0
CIRCLE
  8
_1-0_
  6
CONTINUOUS
 62
    7
 10
222.50244140625
 20
159.52367421743034
 40
0.1638122668137421
  0
CIRCLE
  8
_1-0_
  6
CONTINUOUS
 62
    7
 10
224.950512035473
 20
159.20435312631969
 40
0.1638122668137421
  0
CIRCLE
  8
_1-0_
  6
CONTINUOUS
 62
    7
 10
223.77967628272805
 20
159.41722560573268
 40
0.1638122668137421
  0
CIRCLE
  8
_1-0_
  6
CONTINUOUS
 62
    7
 10
223.35393132390203
 20
159.6300980851457
 40
0.1638122668137421
  0
CIRCLE
  8
_1-0_
  6
CONTINUOUS
 62
    7
 10
224.34005324904984
 20
158.53755229228253
 40
0.150517015843778
  0
CIRCLE
  8
_1-0_
  6
CONTINUOUS
 62
    7
 10
222.63873126055745
 20
161.50011217271961
 40
0.1638122668137421
  0
CIRCLE
  8
_1-0_
  6
CONTINUOUS
 62
    7
 10
225.08685137774495
 20
161.18079108160896
 40
0.1638122668137421
  0
CIRCLE
  8
_1-0_
  6
CONTINUOUS
 62
    7
 10
223.916015625
 20
161.39366356102198
 40
0.1638122668137421
  0
CIRCLE
  8
_1-0_
  6
CONTINUOUS
 62
    7
 10
223.49024592219175
 20
161.60653604043497
 40
0.1638122668137421
  0
CIRCLE
  8
_1-0_
  6
CONTINUOUS
 62
    7
 10
224.47636784733953
 20
160.5139902475718
 40
0.150517015843778
  0
CIRCLE
  8
_1-0_
  6
CONTINUOUS
 62
    7
 10
221.20753932643584
 20
163.13577600427578
 40
0.1638122668137421
  0
CIRCLE
  8
_1-0_
  6
CONTINUOUS
 62
    7
 10
223.6556099556588
 20
162.81645491316513
 40
0.1638122668137421
  0
CIRCLE
  8
_1-0_
  6
CONTINUOUS
 62
    7
 10
222.48477420291385
 20
163.02932739257812
 40
0.1638122668137421
  0
CIRCLE
  8
_1-0_
  6
CONTINUOUS
 62
    7
 10
222.05902924408784
 20
163.24219987199115
 40
0.1638122668137421
  0
CIRCLE
  8
_1-0_
  6
CONTINUOUS
 62
    7
 10
223.04515116923565
 20
162.14965407912797
 40
0.150517015843778
  0
CIRCLE
  8
_1-0_
  6
CONTINUOUS
 62
    7
 10
226.5234375
 20
159.93259326831716
 40
0.1638122668137421
  0
CIRCLE
  8
_1-0_
  6
CONTINUOUS
 62
    7
 10
228.9715576171875
 20
159.61327217720651
 40
0.1638122668137421
  0
CIRCLE
  8
_1-0_
  6
CONTINUOUS
 62
    7
 10
227.80072186444258
 20
159.82614465661953
 40
0.1638122668137421
  0
CIRCLE
  8
_1-0_
  6
CONTINUOUS
 62
    7
 10
227.3749521616343
 20
160.03901713603253
 40
0.1638122668137421
  0
CIRCLE
  8
_1-0_
  6
CONTINUOUS
 62
    7
 10
228.36107408678211
 20
158.94647134316935
 40
0.150517015843778
  0
CIRCLE
  8
_1-0_
  6
CONTINUOUS
 62
    7
 10
231.0896919869088
 20
158.77399341480154
 40
0.1638122668137421
  0
CIRCLE
  8
_1-0_
  6
CONTINUOUS
 62
    7
 10
233.53776261613177
 20
158.45467232369089
 40
0.1638122668137421
  0
CIRCLE
  8
_1-0_
  6
CONTINUOUS
 62
    7
 10
232.36692686338685
 20
158.66754480310388
 40
0.1638122668137421
  0
CIRCLE
  8
_1-0_
  6
CONTINUOUS
 62
    7
 10
231.94118190456084
 20
158.8804172825169
 40
0.1638122668137421
  0
CIRCLE
  8
_1-0_
  6
CONTINUOUS
 62
    7
 10
232.92730382970862
 20
157.78787148965372
 40
0.150517015843778
  0
CIRCLE
  8
_1-0_
  6
CONTINUOUS
 62
    7
 10
246.90114614125847
 20
150.11859790698904
 40
0.1638122668137421
  0
CIRCLE
  8
_1-0_
  6
CONTINUOUS
 62
    7
 10
249.34926625844597
 20
149.79927681587839
 40
0.1638122668137421
  0
CIRCLE
  8
_1-0_
  6
CONTINUOUS
 62
    7
 10
248.17843050570102
 20
150.01214929529138
 40
0.1638122668137421
  0
CIRCLE
  8
_1-0_
  6
CONTINUOUS
 62
    7
 10
247.75266080289276
 20
150.2250217747044
 40
0.1638122668137421
  0
CIRCLE
  8
_1-0_
  6
CONTINUOUS
 62
    7
 10
248.73878272804055
 20
149.13247598184122
 40
0.150517015843778
  0
CIRCLE
  8
_1-0_
  6
CONTINUOUS
 62
    7
 10
241.31261877111487
 20
150.39121473157729
 40
0.1638122668137421
  0
CIRCLE
  8
_1-0_
  6
CONTINUOUS
 62
    7
 10
243.76073888830237
 20
150.07189364046664
 40
0.1638122668137421
  0
CIRCLE
  8
_1-0_
  6
CONTINUOUS
 62
    7
 10
242.58990313555745
 20
150.28476611987966
 40
0.1638122668137421
  0
CIRCLE
  8
_1-0_
  6
CONTINUOUS
 62
    7
 10
242.16413343274917
 20
150.49763859929266
 40
0.1638122668137421
  0
CIRCLE
  8
_1-0_
  6
CONTINUOUS
 62
    7
 10
243.15025535789698
 20
149.40509280642948
 40
0.150517015843778
  0
CIRCLE
  8
_1-0_
  6
CONTINUOUS
 62
    7
 10
241.24447384396117
 20
152.64024476747255
 40
0.1638122668137421
  0
CIRCLE
  8
_1-0_
  6
CONTINUOUS
 62
    7
 10
243.69254447318414
 20
152.32092367636193
 40
0.1638122668137421
  0
CIRCLE
  8
_1-0_
  6
CONTINUOUS
 62
    7
 10
242.52170872043919
 20
152.53379615577492
 40
0.1638122668137421
  0
CIRCLE
  8
_1-0_
  6
CONTINUOUS
 62
    7
 10
242.09596376161318
 20
152.74666863518794
 40
0.1638122668137421
  0
CIRCLE
  8
_1-0_
  6
CONTINUOUS
 62
    7
 10
243.08208568676099
 20
151.65412284232477
 40
0.150517015843778
  0
CIRCLE
  8
_1-0_
  6
CONTINUOUS
 62
    7
 10
235.24702742293076
 20
154.82114224820523
 40
0.1638122668137421
  0
CIRCLE
  8
_1-0_
  6
CONTINUOUS
 62
    7
 10
237.69514754011826
 20
154.50182115709461
 40
0.1638122668137421
  0
CIRCLE
  8
_1-0_
  6
CONTINUOUS
 62
    7
 10
236.52431178737334
 20
154.7146936365076
 40
0.1638122668137421
  0
CIRCLE
  8
_1-0_
  6
CONTINUOUS
 62
    7
 10
236.09854208456505
 20
154.92756611592063
 40
0.1638122668137421
  0
CIRCLE
  8
_1-0_
  6
CONTINUOUS
 62
    7
 10
237.08466400971284
 20
153.83502032305745
 40
0.150517015843778
  0
CIRCLE
  8
_1-0_
  6
CONTINUOUS
 62
    7
 10
232.65722326330237
 20
156.45680607976141
 40
0.1638122668137421
  0
CIRCLE
  8
_1-0_
  6
CONTINUOUS
 62
    7
 10
235.10534338048987
 20
156.13748498865075
 40
0.1638122668137421
  0
CIRCLE
  8
_1-0_
  6
CONTINUOUS
 62
    7
 10
233.93450762774495
 20
156.35035746806378
 40
0.1638122668137421
  0
CIRCLE
  8
_1-0_
  6
CONTINUOUS
 62
    7
 10
233.50873792493667
 20
156.56322994747677
 40
0.1638122668137421
  0
CIRCLE
  8
_1-0_
  6
CONTINUOUS
 62
    7
 10
234.49485985008448
 20
155.47068415461359
 40
0.150517015843778
  0
CIRCLE
  8
_1-0_
  6
CONTINUOUS
 62
    7
 10
229.38587085620779
 20
155.63896797798776
 40
0.1638122668137421
  0
CIRCLE
  8
_1-0_
  6
CONTINUOUS
 62
    7
 10
231.83399097339529
 20
155.31964688687711
 40
0.1638122668137421
  0
CIRCLE
  8
_1-0_
  6
CONTINUOUS
 62
    7
 10
230.66315522065034
 20
155.53251936629013
 40
0.1638122668137421
  0
CIRCLE
  8
_1-0_
  6
CONTINUOUS
 62
    7
 10
230.23738551784209
 20
155.74539184570312
 40
0.1638122668137421
  0
CIRCLE
  8
_1-0_
  6
CONTINUOUS
 62
    7
 10
231.22350744298987
 20
154.65284605283995
 40
0.150517015843778
  0
CIRCLE
  8
_1-0_
  6
CONTINUOUS
 62
    7
 10
235.45151169235643
 20
152.91286159206081
 40
0.1638122668137421
  0
CIRCLE
  8
_1-0_
  6
CONTINUOUS
 62
    7
 10
237.8995823215794
 20
152.59354050095018
 40
0.1638122668137421
  0
CIRCLE
  8
_1-0_
  6
CONTINUOUS
 62
    7
 10
236.72874656883448
 20
152.80641298036318
 40
0.1638122668137421
  0
CIRCLE
  8
_1-0_
  6
CONTINUOUS
 62
    7
 10
236.30300161000847
 20
153.0192854597762
 40
0.1638122668137421
  0
CIRCLE
  8
_1-0_
  6
CONTINUOUS
 62
    7
 10
237.28912353515625
 20
151.92673966691302
 40
0.150517015843778
  0
CIRCLE
  8
_1-0_
  6
CONTINUOUS
 62
    7
 10
236.13301045185813
 20
155.43450845254435
 40
0.1638122668137421
  0
CIRCLE
  8
_1-0_
  6
CONTINUOUS
 62
    7
 10
238.58113056904563
 20
155.1151873614337
 40
0.1638122668137421
  0
CIRCLE
  8
_1-0_
  6
CONTINUOUS
 62
    7
 10
237.41029481630068
 20
155.32805984084672
 40
0.1638122668137421
  0
CIRCLE
  8
_1-0_
  6
CONTINUOUS
 62
    7
 10
236.98452511349242
 20
155.54093232025971
 40
0.1638122668137421
  0
CIRCLE
  8
_1-0_
  6
CONTINUOUS
 62
    7
 10
237.97064703864021
 20
154.44838652739654
 40
0.150517015843778
  0
CIRCLE
  8
_1-0_
  6
CONTINUOUS
 62
    7
 10
239.33621793179901
 20
154.48038049646325
 40
0.1638122668137421
  0
CIRCLE
  8
_1-0_
  6
CONTINUOUS
 62
    7
 10
241.78428856102198
 20
154.16105940535263
 40
0.1638122668137421
  0
CIRCLE
  8
_1-0_
  6
CONTINUOUS
 62
    7
 10
240.61345280827703
 20
154.37393188476562
 40
0.1638122668137421
  0
CIRCLE
  8
_1-0_
  6
CONTINUOUS
 62
    7
 10
240.18770784945102
 20
154.58680436417865
 40
0.1638122668137421
  0
CIRCLE
  8
_1-0_
  6
CONTINUOUS
 62
    7
 10
241.17382977459883
 20
153.49425857131547
 40
0.150517015843778
  0
CIRCLE
  8
_1-0_
  6
CONTINUOUS
 62
    7
 10
243.83427800358953
 20
153.04916381835937
 40
0.1638122668137421
  0
CIRCLE
  8
_1-0_
  6
CONTINUOUS
 62
    7
 10
246.28239812077703
 20
152.72984272724875
 40
0.1638122668137421
  0
CIRCLE
  8
_1-0_
  6
CONTINUOUS
 62
    7
 10
245.11156236803211
 20
152.94271520666175
 40
0.1638122668137421
  0
CIRCLE
  8
_1-0_
  6
CONTINUOUS
 62
    7
 10
244.68579266522383
 20
153.15558768607477
 40
0.1638122668137421
  0
CIRCLE
  8
_1-0_
  6
CONTINUOUS
 62
    7
 10
245.67191459037164
 20
152.06304189321159
 40
0.150517015843778
  0
CIRCLE
  8
_1-0_
  6
CONTINUOUS
 62
    7
 10
249.55911997202281
 20
150.66381918417443
 40
0.1638122668137421
  0
CIRCLE
  8
_1-0_
  6
CONTINUOUS
 62
    7
 10
250.41060988967484
 20
150.77024305188979
 40
0.1638122668137421
  0
CIRCLE
  8
_1-0_
  6
CONTINUOUS
 62
    7
 10
251.67186015361065
 20
148.0058577254012
 40
0.1638122668137421
  0
CIRCLE
  8
_1-0_
  6
CONTINUOUS
 62
    7
 10
252.52335007126268
 20
148.11228159311656
 40
0.1638122668137421
  0
CIRCLE
  8
_1-0_
  6
CONTINUOUS
 62
    7
 10
247.24192026499156
 20
148.48292170344172
 40
0.1638122668137421
  0
CIRCLE
  8
_1-0_
  6
CONTINUOUS
 62
    7
 10
248.09341018264359
 20
148.58934557115711
 40
0.1638122668137421
  0
CIRCLE
  8
_1-0_
  6
CONTINUOUS
 62
    7
 10
256.95388381545609
 20
146.3103010847762
 40
0.1638122668137421
  0
CIRCLE
  8
_1-0_
  6
CONTINUOUS
 62
    7
 10
257.80537373310813
 20
146.41672495249156
 40
0.1638122668137421
  0
CIRCLE
  8
_1-0_
  6
CONTINUOUS
 62
    7
 10
253.09706404402451
 20
149.20292209934544
 40
0.1638122668137421
  0
CIRCLE
  8
_1-0_
  6
CONTINUOUS
 62
    7
 10
253.94855396167654
 20
149.30934596706081
 40
0.1638122668137421
  0
CIRCLE
  8
_1-0_
  6
CONTINUOUS
 62
    7
 10
253.09706404402451
 20
145.82820170634503
 40
0.1638122668137421
  0
CIRCLE
  8
_1-0_
  6
CONTINUOUS
 62
    7
 10
253.94855396167654
 20
145.93462557406039
 40
0.1638122668137421
  0
CIRCLE
  8
_1-0_
  6
CONTINUOUS
 62
    7
 10
256.23071618982266
 20
146.79240046320734
 40
0.1638122668137421
  0
CIRCLE
  8
_1-0_
  6
CONTINUOUS
 62
    7
 10
257.08220610747469
 20
146.89882433092274
 40
0.1638122668137421
  0
CIRCLE
  8
_1-0_
  6
CONTINUOUS
 62
    7
 10
255.50757330817146
 20
147.99766746727198
 40
0.1638122668137421
  0
CIRCLE
  8
_1-0_
  6
CONTINUOUS
 62
    7
 10
256.35906322582349
 20
148.10409133498734
 40
0.1638122668137421
  0
CIRCLE
  8
_1-0_
  6
CONTINUOUS
 62
    7
 10
255.02546155774917
 20
147.99766746727198
 40
0.1638122668137421
  0
CIRCLE
  8
_1-0_
  6
CONTINUOUS
 62
    7
 10
255.8769514754012
 20
148.10409133498734
 40
0.1638122668137421
  0
CIRCLE
  8
_1-0_
  6
CONTINUOUS
 62
    7
 10
250.92758591110643
 20
147.99766746727198
 40
0.1638122668137421
  0
CIRCLE
  8
_1-0_
  6
CONTINUOUS
 62
    7
 10
251.77907582875847
 20
148.10409133498734
 40
0.1638122668137421
  0
CIRCLE
  8
_1-0_
  6
CONTINUOUS
 62
    7
 10
248.03496489653719
 20
148.47976684570312
 40
0.1638122668137421
  0
CIRCLE
  8
_1-0_
  6
CONTINUOUS
 62
    7
 10
248.88645481418919
 20
148.58619071341852
 40
0.1638122668137421
  0
CIRCLE
  8
_1-0_
  6
CONTINUOUS
 62
    7
 10
255.98968505859375
 20
146.79240046320734
 40
0.1638122668137421
  0
CIRCLE
  8
_1-0_
  6
CONTINUOUS
 62
    7
 10
256.84117497624578
 20
146.89882433092274
 40
0.1638122668137421
  0
CIRCLE
  8
_1-0_
  6
CONTINUOUS
 62
    7
 10
269.24753549936656
 20
139.80190380199537
 40
0.1638122668137421
  0
CIRCLE
  8
_1-0_
  6
CONTINUOUS
 62
    7
 10
270.09902541701859
 20
139.90832766971073
 40
0.1638122668137421
  0
CIRCLE
  8
_1-0_
  6
CONTINUOUS
 62
    7
 10
270.6938460066512
 20
139.31979205157307
 40
0.1638122668137421
  0
CIRCLE
  8
_1-0_
  6
CONTINUOUS
 62
    7
 10
271.54533592430323
 20
139.42621591928844
 40
0.1638122668137421
  0
CIRCLE
  8
_1-0_
  6
CONTINUOUS
 62
    7
 10
265.39069098395271
 20
141.24821430928
 40
0.1638122668137421
  0
CIRCLE
  8
_1-0_
  6
CONTINUOUS
 62
    7
 10
266.24218090160474
 20
141.35463817699537
 40
0.1638122668137421
  0
CIRCLE
  8
_1-0_
  6
CONTINUOUS
 62
    7
 10
265.39069098395271
 20
142.69452481656461
 40
0.1638122668137421
  0
CIRCLE
  8
_1-0_
  6
CONTINUOUS
 62
    7
 10
266.24218090160474
 20
142.80094868428
 40
0.1638122668137421
  0
CIRCLE
  8
_1-0_
  6
CONTINUOUS
 62
    7
 10
265.39069098395271
 20
143.41768007020693
 40
0.1638122668137421
  0
CIRCLE
  8
_1-0_
  6
CONTINUOUS
 62
    7
 10
266.24218090160474
 20
143.52410393792229
 40
0.1638122668137421
  0
CIRCLE
  8
_1-0_
  6
CONTINUOUS
 62
    7
 10
261.29281533731
 20
143.17662419499578
 40
0.1638122668137421
  0
CIRCLE
  8
_1-0_
  6
CONTINUOUS
 62
    7
 10
262.14430525496203
 20
143.28304806271115
 40
0.1638122668137421
  0
CIRCLE
  8
_1-0_
  6
CONTINUOUS
 62
    7
 10
259.36439307960308
 20
143.41768007020693
 40
0.1638122668137421
  0
CIRCLE
  8
_1-0_
  6
CONTINUOUS
 62
    7
 10
260.21588299725511
 20
143.52410393792229
 40
0.1638122668137421
  0
CIRCLE
  8
_1-0_
  6
CONTINUOUS
 62
    7
 10
257.43599556587839
 20
144.86399057749156
 40
0.1638122668137421
  0
CIRCLE
  8
_1-0_
  6
CONTINUOUS
 62
    7
 10
258.28748548353042
 20
144.97041444520693
 40
0.1638122668137421
  0
CIRCLE
  8
_1-0_
  6
CONTINUOUS
 62
    7
 10
255.98968505859375
 20
145.82820170634503
 40
0.1638122668137421
  0
CIRCLE
  8
_1-0_
  6
CONTINUOUS
 62
    7
 10
256.84117497624578
 20
145.93462557406039
 40
0.1638122668137421
  0
CIRCLE
  8
_1-0_
  6
CONTINUOUS
 62
    7
 10
260.5696724556588
 20
145.34608995592274
 40
0.1638122668137421
  0
CIRCLE
  8
_1-0_
  6
CONTINUOUS
 62
    7
 10
261.42116237331084
 20
145.4525138236381
 40
0.1638122668137421
  0
CIRCLE
  8
_1-0_
  6
CONTINUOUS
 62
    7
 10
260.08756070523651
 20
145.58714583113388
 40
0.1638122668137421
  0
CIRCLE
  8
_1-0_
  6
CONTINUOUS
 62
    7
 10
260.93905062288854
 20
145.69356969884925
 40
0.1638122668137421
  0
CIRCLE
  8
_1-0_
  6
CONTINUOUS
 62
    7
 10
266.35491448479729
 20
142.69452481656461
 40
0.1638122668137421
  0
CIRCLE
  8
_1-0_
  6
CONTINUOUS
 62
    7
 10
267.20640440244932
 20
142.80094868428
 40
0.1638122668137421
  0
CIRCLE
  8
_1-0_
  6
CONTINUOUS
 62
    7
 10
268.52436787373313
 20
141.24821430928
 40
0.1638122668137421
  0
CIRCLE
  8
_1-0_
  6
CONTINUOUS
 62
    7
 10
269.37585779138516
 20
141.35463817699537
 40
0.1638122668137421
  0
CIRCLE
  8
_1-0_
  6
CONTINUOUS
 62
    7
 10
264.90860397751271
 20
140.52505905563768
 40
0.1638122668137421
  0
CIRCLE
  8
_1-0_
  6
CONTINUOUS
 62
    7
 10
265.76009389516469
 20
140.63148292335305
 40
0.1638122668137421
  0
CIRCLE
  8
_1-0_
  6
CONTINUOUS
 62
    7
 10
262.49806996938344
 20
142.21241306614232
 40
0.1638122668137421
  0
CIRCLE
  8
_1-0_
  6
CONTINUOUS
 62
    7
 10
263.34955988703547
 20
142.31883693385768
 40
0.1638122668137421
  0
CIRCLE
  8
_1-0_
  6
CONTINUOUS
 62
    7
 10
262.49806996938344
 20
144.86399057749156
 40
0.1638122668137421
  0
CIRCLE
  8
_1-0_
  6
CONTINUOUS
 62
    7
 10
263.34955988703547
 20
144.97041444520693
 40
0.1638122668137421
  0
CIRCLE
  8
_1-0_
  6
CONTINUOUS
 62
    7
 10
269.72964724978885
 20
140.52505905563768
 40
0.1638122668137421
  0
CIRCLE
  8
_1-0_
  6
CONTINUOUS
 62
    7
 10
270.58113716744089
 20
140.63148292335305
 40
0.1638122668137421
  0
CIRCLE
  8
_1-0_
  6
CONTINUOUS
 62
    7
 10
272.38121238914698
 20
138.8376926731419
 40
0.1638122668137421
  0
CIRCLE
  8
_1-0_
  6
CONTINUOUS
 62
    7
 10
273.23270230679901
 20
138.94411654085727
 40
0.1638122668137421
  0
CIRCLE
  8
_1-0_
  6
CONTINUOUS
 62
    7
 10
283.22852882179058
 20
134.98086052971917
 40
0.1638122668137421
  0
CIRCLE
  8
_1-0_
  6
CONTINUOUS
 62
    7
 10
284.08001873944261
 20
135.08728439743456
 40
0.1638122668137421
  0
CIRCLE
  8
_1-0_
  6
CONTINUOUS
 62
    7
 10
287.08537333720443
 20
131.3650842615076
 40
0.1638122668137421
  0
CIRCLE
  8
_1-0_
  6
CONTINUOUS
 62
    7
 10
287.93686325485646
 20
131.47150812922297
 40
0.1638122668137421
  0
CIRCLE
  8
_1-0_
  6
CONTINUOUS
 62
    7
 10
283.95169644742401
 20
131.60614013671875
 40
0.1638122668137421
  0
CIRCLE
  8
_1-0_
  6
CONTINUOUS
 62
    7
 10
284.80318636507604
 20
131.71256400443414
 40
0.1638122668137421
  0
CIRCLE
  8
_1-0_
  6
CONTINUOUS
 62
    7
 10
281.30013130806589
 20
133.53455002243456
 40
0.1638122668137421
  0
CIRCLE
  8
_1-0_
  6
CONTINUOUS
 62
    7
 10
282.15162122571792
 20
133.64097389014992
 40
0.1638122668137421
  0
CIRCLE
  8
_1-0_
  6
CONTINUOUS
 62
    7
 10
281.54118718327703
 20
134.25770527607688
 40
0.1638122668137421
  0
CIRCLE
  8
_1-0_
  6
CONTINUOUS
 62
    7
 10
282.39267710092906
 20
134.36412914379224
 40
0.1638122668137421
  0
CIRCLE
  8
_1-0_
  6
CONTINUOUS
 62
    7
 10
276.72014391100083
 20
135.70402815535263
 40
0.1638122668137421
  0
CIRCLE
  8
_1-0_
  6
CONTINUOUS
 62
    7
 10
277.57163382865286
 20
135.810452023068
 40
0.1638122668137421
  0
CIRCLE
  8
_1-0_
  6
CONTINUOUS
 62
    7
 10
273.10435527079818
 20
137.15033866263727
 40
0.1638122668137421
  0
CIRCLE
  8
_1-0_
  6
CONTINUOUS
 62
    7
 10
273.95584518845021
 20
137.25676253035263
 40
0.1638122668137421
  0
CIRCLE
  8
_1-0_
  6
CONTINUOUS
 62
    7
 10
270.93490188186234
 20
138.11453741949958
 40
0.1638122668137421
  0
CIRCLE
  8
_1-0_
  6
CONTINUOUS
 62
    7
 10
271.78639179951438
 20
138.22096128721495
 40
0.1638122668137421
  0
CIRCLE
  8
_1-0_
  6
CONTINUOUS
 62
    7
 10
271.65804476351354
 20
141.00715843406886
 40
0.1638122668137421
  0
CIRCLE
  8
_1-0_
  6
CONTINUOUS
 62
    7
 10
272.50953468116558
 20
141.11358230178422
 40
0.1638122668137421
  0
CIRCLE
  8
_1-0_
  6
CONTINUOUS
 62
    7
 10
277.92539854307432
 20
137.63242566907729
 40
0.1638122668137421
  0
CIRCLE
  8
_1-0_
  6
CONTINUOUS
 62
    7
 10
278.77688846072635
 20
137.73884953679266
 40
0.1638122668137421
  0
CIRCLE
  8
_1-0_
  6
CONTINUOUS
 62
    7
 10
281.05907543285474
 20
137.87348154428844
 40
0.1638122668137421
  0
CIRCLE
  8
_1-0_
  6
CONTINUOUS
 62
    7
 10
281.91056535050677
 20
137.9799054120038
 40
0.1638122668137421
  0
CIRCLE
  8
_1-0_
  6
CONTINUOUS
 62
    7
 10
278.40751029349661
 20
136.18611516179266
 40
0.1638122668137421
  0
CIRCLE
  8
_1-0_
  6
CONTINUOUS
 62
    7
 10
279.25900021114865
 20
136.29253902950802
 40
0.1638122668137421
  0
CIRCLE
  8
_1-0_
  6
CONTINUOUS
 62
    7
 10
275.75592041015625
 20
138.59664916992187
 40
0.1638122668137421
  0
CIRCLE
  8
_1-0_
  6
CONTINUOUS
 62
    7
 10
276.60741032780828
 20
138.70307303763727
 40
0.1638122668137421
  0
CIRCLE
  8
_1-0_
  6
CONTINUOUS
 62
    7
 10
291.66536073426943
 20
131.3650842615076
 40
0.1638122668137421
  0
CIRCLE
  8
_1-0_
  6
CONTINUOUS
 62
    7
 10
292.51685065192146
 20
131.47150812922297
 40
0.1638122668137421
  0
CIRCLE
  8
_1-0_
  6
CONTINUOUS
 62
    7
 10
289.01377085092906
 20
131.3650842615076
 40
0.1638122668137421
  0
CIRCLE
  8
_1-0_
  6
CONTINUOUS
 62
    7
 10
289.86526076858109
 20
131.47150812922297
 40
0.1638122668137421
  0
CIRCLE
  8
_1-0_
  6
CONTINUOUS
 62
    7
 10
287.08537333720443
 20
132.81139476879224
 40
0.1638122668137421
  0
CIRCLE
  8
_1-0_
  6
CONTINUOUS
 62
    7
 10
287.93686325485646
 20
132.9178186365076
 40
0.1638122668137421
  0
CIRCLE
  8
_1-0_
  6
CONTINUOUS
 62
    7
 10
286.12114983635979
 20
133.53455002243456
 40
0.1638122668137421
  0
CIRCLE
  8
_1-0_
  6
CONTINUOUS
 62
    7
 10
286.97263975401182
 20
133.64097389014992
 40
0.1638122668137421
  0
CIRCLE
  8
_1-0_
  6
CONTINUOUS
 62
    7
 10
279.37170905035896
 20
134.73980465450802
 40
0.1638122668137421
  0
CIRCLE
  8
_1-0_
  6
CONTINUOUS
 62
    7
 10
280.22319896801099
 20
134.84622852222341
 40
0.1638122668137421
  0
CIRCLE
  8
_1-0_
  6
CONTINUOUS
 62
    7
 10
274.79172165329396
 20
137.15033866263727
 40
0.1638122668137421
  0
CIRCLE
  8
_1-0_
  6
CONTINUOUS
 62
    7
 10
275.64321157094594
 20
137.25676253035263
 40
0.1638122668137421
  0
CIRCLE
  8
_1-0_
  6
CONTINUOUS
 62
    7
 10
277.92539854307432
 20
137.63242566907729
 40
0.1638122668137421
  0
CIRCLE
  8
_1-0_
  6
CONTINUOUS
 62
    7
 10
278.77688846072635
 20
137.73884953679266
 40
0.1638122668137421
  0
CIRCLE
  8
_1-0_
  6
CONTINUOUS
 62
    7
 10
273.34541114600933
 20
139.31979205157307
 40
0.1638122668137421
  0
CIRCLE
  8
_1-0_
  6
CONTINUOUS
 62
    7
 10
274.19690106366136
 20
139.42621591928844
 40
0.1638122668137421
  0
CIRCLE
  8
_1-0_
  6
CONTINUOUS
 62
    7
 10
296.24534813133448
 20
128.47246324693836
 40
0.1638122668137421
  0
CIRCLE
  8
_1-0_
  6
CONTINUOUS
 62
    7
 10
297.09683804898651
 20
128.57888711465372
 40
0.1638122668137421
  0
CIRCLE
  8
_1-0_
  6
CONTINUOUS
 62
    7
 10
303.71795654296875
 20
124.37457522830448
 40
0.1638122668137421
  0
CIRCLE
  8
_1-0_
  6
CONTINUOUS
 62
    7
 10
304.56944646062078
 20
124.48099909601986
 40
0.1638122668137421
  0
CIRCLE
  8
_1-0_
  6
CONTINUOUS
 62
    7
 10
298.41480152027026
 20
125.82088573558912
 40
0.1638122668137421
  0
CIRCLE
  8
_1-0_
  6
CONTINUOUS
 62
    7
 10
299.26629143792229
 20
125.92730960330448
 40
0.1638122668137421
  0
CIRCLE
  8
_1-0_
  6
CONTINUOUS
 62
    7
 10
290.21905022698479
 20
129.67773025100297
 40
0.1638122668137421
  0
CIRCLE
  8
_1-0_
  6
CONTINUOUS
 62
    7
 10
291.07054014463682
 20
129.78415411871833
 40
0.1638122668137421
  0
CIRCLE
  8
_1-0_
  6
CONTINUOUS
 62
    7
 10
295.04006875527875
 20
128.9545626253695
 40
0.1638122668137421
  0
CIRCLE
  8
_1-0_
  6
CONTINUOUS
 62
    7
 10
295.89155867293078
 20
129.0609864930849
 40
0.1638122668137421
  0
CIRCLE
  8
_1-0_
  6
CONTINUOUS
 62
    7
 10
309.74425444731844
 20
119.31248845280828
 40
0.1638122668137421
  0
CIRCLE
  8
_1-0_
  6
CONTINUOUS
 62
    7
 10
310.59574436497047
 20
119.41891232052366
 40
0.1638122668137421
  0
CIRCLE
  8
_1-0_
  6
CONTINUOUS
 62
    7
 10
311.19056495460308
 20
118.83037670238599
 40
0.1638122668137421
  0
CIRCLE
  8
_1-0_
  6
CONTINUOUS
 62
    7
 10
312.04205487225511
 20
118.93680057010135
 40
0.1638122668137421
  0
CIRCLE
  8
_1-0_
  6
CONTINUOUS
 62
    7
 10
307.7031233504012
 20
122.31153333509292
 40
0.1638122668137421
  0
CIRCLE
  8
_1-0_
  6
CONTINUOUS
 62
    7
 10
309.021086821685
 20
120.75879896009292
 40
0.1638122668137421
  0
CIRCLE
  8
_1-0_
  6
CONTINUOUS
 62
    7
 10
309.87257673933703
 20
120.86522282780828
 40
0.1638122668137421
  0
CIRCLE
  8
_1-0_
  6
CONTINUOUS
 62
    7
 10
310.22636619774073
 20
120.0356437064506
 40
0.1638122668137421
  0
CIRCLE
  8
_1-0_
  6
CONTINUOUS
 62
    7
 10
311.07785611539276
 20
120.14206757416596
 40
0.1638122668137421
  0
CIRCLE
  8
_1-0_
  6
CONTINUOUS
 62
    7
 10
312.87793133709886
 20
118.34827732395482
 40
0.1638122668137421
  0
CIRCLE
  8
_1-0_
  6
CONTINUOUS
 62
    7
 10
313.72942125475089
 20
118.4547011916702
 40
0.1638122668137421
  0
CIRCLE
  8
_1-0_
  6
CONTINUOUS
 62
    7
 10
312.15476371146536
 20
120.51774308488176
 40
0.1638122668137421
  0
CIRCLE
  8
_1-0_
  6
CONTINUOUS
 62
    7
 10
313.0062536291174
 20
120.62416695259714
 40
0.1638122668137421
  0
CIRCLE
  8
_1-0_
  6
CONTINUOUS
 62
    7
 10
318.4221174910262
 20
117.14301031989021
 40
0.1638122668137421
  0
CIRCLE
  8
_1-0_
  6
CONTINUOUS
 62
    7
 10
319.27360740867823
 20
117.24943418760559
 40
0.1638122668137421
  0
CIRCLE
  8
_1-0_
  6
CONTINUOUS
 62
    7
 10
321.55579438080662
 20
117.38406619510135
 40
0.1638122668137421
  0
CIRCLE
  8
_1-0_
  6
CONTINUOUS
 62
    7
 10
322.40728429845865
 20
117.49049006281673
 40
0.1638122668137421
  0
CIRCLE
  8
_1-0_
  6
CONTINUOUS
 62
    7
 10
318.90422924144849
 20
115.69669981260559
 40
0.1638122668137421
  0
CIRCLE
  8
_1-0_
  6
CONTINUOUS
 62
    7
 10
319.75571915910052
 20
115.80312368032095
 40
0.1638122668137421
  0
CIRCLE
  8
_1-0_
  6
CONTINUOUS
 62
    7
 10
317.10412927576016
 20
118.21365768845017
 40
0.1638122668137421
  0
CIRCLE
  8
_1-0_
  6
CONTINUOUS
 62
    7
 10
318.4221174910262
 20
117.14301031989021
 40
0.1638122668137421
  0
CIRCLE
  8
_1-0_
  6
CONTINUOUS
 62
    7
 10
319.27360740867823
 20
117.24943418760559
 40
0.1638122668137421
  0
CIRCLE
  8
_1-0_
  6
CONTINUOUS
 62
    7
 10
313.84213009396115
 20
118.83037670238599
 40
0.1638122668137421
  0
CIRCLE
  8
_1-0_
  6
CONTINUOUS
 62
    7
 10
314.69362001161318
 20
118.93680057010135
 40
0.1638122668137421
  0
CIRCLE
  8
_1-0_
  6
CONTINUOUS
 62
    7
 10
298.65585739548146
 20
126.78509686444258
 40
0.1638122668137421
  0
CIRCLE
  8
_1-0_
  6
CONTINUOUS
 62
    7
 10
299.50734731313344
 20
126.89152073215794
 40
0.1638122668137421
  0
CIRCLE
  8
_1-0_
  6
CONTINUOUS
 62
    7
 10
300.10216790276604
 20
126.30298511402027
 40
0.1638122668137421
  0
CIRCLE
  8
_1-0_
  6
CONTINUOUS
 62
    7
 10
300.95365782041807
 20
126.40940898173565
 40
0.1638122668137421
  0
CIRCLE
  8
_1-0_
  6
CONTINUOUS
 62
    7
 10
296.61472629856422
 20
129.78414174672722
 40
0.1638122668137421
  0
CIRCLE
  8
_1-0_
  6
CONTINUOUS
 62
    7
 10
297.93268976984797
 20
128.23140737172722
 40
0.1638122668137421
  0
CIRCLE
  8
_1-0_
  6
CONTINUOUS
 62
    7
 10
298.7841796875
 20
128.33783123944258
 40
0.1638122668137421
  0
CIRCLE
  8
_1-0_
  6
CONTINUOUS
 62
    7
 10
299.13796914590375
 20
127.50825211808488
 40
0.1638122668137421
  0
CIRCLE
  8
_1-0_
  6
CONTINUOUS
 62
    7
 10
299.98945906355578
 20
127.61467598580026
 40
0.1638122668137421
  0
CIRCLE
  8
_1-0_
  6
CONTINUOUS
 62
    7
 10
301.78953428526182
 20
125.82088573558912
 40
0.1638122668137421
  0
CIRCLE
  8
_1-0_
  6
CONTINUOUS
 62
    7
 10
302.64102420291385
 20
125.92730960330448
 40
0.1638122668137421
  0
CIRCLE
  8
_1-0_
  6
CONTINUOUS
 62
    7
 10
312.63685071790542
 20
121.96405359216639
 40
0.1638122668137421
  0
CIRCLE
  8
_1-0_
  6
CONTINUOUS
 62
    7
 10
310.70845320418078
 20
120.51774308488176
 40
0.1638122668137421
  0
CIRCLE
  8
_1-0_
  6
CONTINUOUS
 62
    7
 10
311.55994312183276
 20
120.62416695259714
 40
0.1638122668137421
  0
CIRCLE
  8
_1-0_
  6
CONTINUOUS
 62
    7
 10
310.94950907939193
 20
121.24089833852408
 40
0.1638122668137421
  0
CIRCLE
  8
_1-0_
  6
CONTINUOUS
 62
    7
 10
311.80099899704396
 20
121.34732220623945
 40
0.1638122668137421
  0
CIRCLE
  8
_1-0_
  6
CONTINUOUS
 62
    7
 10
306.12846580711573
 20
122.68722121779984
 40
0.1638122668137421
  0
CIRCLE
  8
_1-0_
  6
CONTINUOUS
 62
    7
 10
306.97995572476776
 20
122.79364508551521
 40
0.1638122668137421
  0
CIRCLE
  8
_1-0_
  6
CONTINUOUS
 62
    7
 10
302.51267716691302
 20
124.13353172508447
 40
0.1638122668137421
  0
CIRCLE
  8
_1-0_
  6
CONTINUOUS
 62
    7
 10
303.36416708456505
 20
124.23995559279984
 40
0.1638122668137421
  0
CIRCLE
  8
_1-0_
  6
CONTINUOUS
 62
    7
 10
300.34322377797719
 20
125.0977304819468
 40
0.1638122668137421
  0
CIRCLE
  8
_1-0_
  6
CONTINUOUS
 62
    7
 10
301.19471369562922
 20
125.20415434966218
 40
0.1638122668137421
  0
CIRCLE
  8
_1-0_
  6
CONTINUOUS
 62
    7
 10
301.06636665962839
 20
127.99035149651606
 40
0.1638122668137421
  0
CIRCLE
  8
_1-0_
  6
CONTINUOUS
 62
    7
 10
301.91785657728042
 20
128.09677536423143
 40
0.1638122668137421
  0
CIRCLE
  8
_1-0_
  6
CONTINUOUS
 62
    7
 10
307.33372043918922
 20
124.61561873152451
 40
0.1638122668137421
  0
CIRCLE
  8
_1-0_
  6
CONTINUOUS
 62
    7
 10
308.18521035684125
 20
124.72204259923987
 40
0.1638122668137421
  0
CIRCLE
  8
_1-0_
  6
CONTINUOUS
 62
    7
 10
310.46739732896964
 20
124.85667460673565
 40
0.1638122668137421
  0
CIRCLE
  8
_1-0_
  6
CONTINUOUS
 62
    7
 10
311.31888724662161
 20
124.96309847445102
 40
0.1638122668137421
  0
CIRCLE
  8
_1-0_
  6
CONTINUOUS
 62
    7
 10
307.81583218961151
 20
123.16930822423987
 40
0.1638122668137421
  0
CIRCLE
  8
_1-0_
  6
CONTINUOUS
 62
    7
 10
308.66732210726354
 20
123.27573209195525
 40
0.1638122668137421
  0
CIRCLE
  8
_1-0_
  6
CONTINUOUS
 62
    7
 10
305.16424230627115
 20
125.57984223236909
 40
0.1638122668137421
  0
CIRCLE
  8
_1-0_
  6
CONTINUOUS
 62
    7
 10
306.01573222392318
 20
125.68626610008447
 40
0.1638122668137421
  0
CIRCLE
  8
_1-0_
  6
CONTINUOUS
 62
    7
 10
308.78003094647386
 20
121.72299771695525
 40
0.1638122668137421
  0
CIRCLE
  8
_1-0_
  6
CONTINUOUS
 62
    7
 10
309.63152086412589
 20
121.82942158467061
 40
0.1638122668137421
  0
CIRCLE
  8
_1-0_
  6
CONTINUOUS
 62
    7
 10
304.2000435494088
 20
124.13353172508447
 40
0.1638122668137421
  0
CIRCLE
  8
_1-0_
  6
CONTINUOUS
 62
    7
 10
305.05153346706084
 20
124.23995559279984
 40
0.1638122668137421
  0
CIRCLE
  8
_1-0_
  6
CONTINUOUS
 62
    7
 10
307.33372043918922
 20
124.61561873152451
 40
0.1638122668137421
  0
CIRCLE
  8
_1-0_
  6
CONTINUOUS
 62
    7
 10
308.18521035684125
 20
124.72204259923987
 40
0.1638122668137421
  0
CIRCLE
  8
_1-0_
  6
CONTINUOUS
 62
    7
 10
302.75373304212417
 20
126.30298511402027
 40
0.1638122668137421
  0
CIRCLE
  8
_1-0_
  6
CONTINUOUS
 62
    7
 10
303.6052229597762
 20
126.40940898173565
 40
0.1638122668137421
  0
CIRCLE
  8
_1-0_
  6
CONTINUOUS
 62
    7
 10
331.92102380701016
 20
110.87566891232053
 40
0.1638122668137421
  0
CIRCLE
  8
_1-0_
  6
CONTINUOUS
 62
    7
 10
332.77251372466219
 20
110.9820927800359
 40
0.1638122668137421
  0
CIRCLE
  8
_1-0_
  6
CONTINUOUS
 62
    7
 10
333.36733431429479
 20
110.39355716189823
 40
0.1638122668137421
  0
CIRCLE
  8
_1-0_
  6
CONTINUOUS
 62
    7
 10
334.21882423194683
 20
110.49998102961361
 40
0.1638122668137421
  0
CIRCLE
  8
_1-0_
  6
CONTINUOUS
 62
    7
 10
329.87989271009292
 20
113.87471379460516
 40
0.1638122668137421
  0
CIRCLE
  8
_1-0_
  6
CONTINUOUS
 62
    7
 10
331.19785618137672
 20
112.32197941960516
 40
0.1638122668137421
  0
CIRCLE
  8
_1-0_
  6
CONTINUOUS
 62
    7
 10
332.04934609902875
 20
112.42840328732053
 40
0.1638122668137421
  0
CIRCLE
  8
_1-0_
  6
CONTINUOUS
 62
    7
 10
332.40313555743245
 20
111.59882416596284
 40
0.1638122668137421
  0
CIRCLE
  8
_1-0_
  6
CONTINUOUS
 62
    7
 10
333.25462547508448
 20
111.70524803367822
 40
0.1638122668137421
  0
CIRCLE
  8
_1-0_
  6
CONTINUOUS
 62
    7
 10
335.05470069679058
 20
109.91145778346707
 40
0.1638122668137421
  0
CIRCLE
  8
_1-0_
  6
CONTINUOUS
 62
    7
 10
335.90619061444261
 20
110.01788165118244
 40
0.1638122668137421
  0
CIRCLE
  8
_1-0_
  6
CONTINUOUS
 62
    7
 10
345.90201712943411
 20
106.05462564004435
 40
0.1638122668137421
  0
CIRCLE
  8
_1-0_
  6
CONTINUOUS
 62
    7
 10
343.97361961570948
 20
104.60831513275971
 40
0.1638122668137421
  0
CIRCLE
  8
_1-0_
  6
CONTINUOUS
 62
    7
 10
344.82510953336151
 20
104.71473900047509
 40
0.1638122668137421
  0
CIRCLE
  8
_1-0_
  6
CONTINUOUS
 62
    7
 10
344.21467549092063
 20
105.33147038640203
 40
0.1638122668137421
  0
CIRCLE
  8
_1-0_
  6
CONTINUOUS
 62
    7
 10
345.06616540857266
 20
105.43789425411741
 40
0.1638122668137421
  0
CIRCLE
  8
_1-0_
  6
CONTINUOUS
 62
    7
 10
339.39363221864443
 20
106.77779326567779
 40
0.1638122668137421
  0
CIRCLE
  8
_1-0_
  6
CONTINUOUS
 62
    7
 10
340.24512213629646
 20
106.88421713339316
 40
0.1638122668137421
  0
CIRCLE
  8
_1-0_
  6
CONTINUOUS
 62
    7
 10
335.77784357844172
 20
108.22410377296242
 40
0.1638122668137421
  0
CIRCLE
  8
_1-0_
  6
CONTINUOUS
 62
    7
 10
336.62933349609375
 20
108.33052764067779
 40
0.1638122668137421
  0
CIRCLE
  8
_1-0_
  6
CONTINUOUS
 62
    7
 10
333.60839018950594
 20
109.18830252982475
 40
0.1638122668137421
  0
CIRCLE
  8
_1-0_
  6
CONTINUOUS
 62
    7
 10
334.45988010715797
 20
109.29472639754013
 40
0.1638122668137421
  0
CIRCLE
  8
_1-0_
  6
CONTINUOUS
 62
    7
 10
334.33153307115714
 20
112.08092354439401
 40
0.1638122668137421
  0
CIRCLE
  8
_1-0_
  6
CONTINUOUS
 62
    7
 10
335.18302298880911
 20
112.18734741210937
 40
0.1638122668137421
  0
CIRCLE
  8
_1-0_
  6
CONTINUOUS
 62
    7
 10
340.59888685071792
 20
108.70619077940246
 40
0.1638122668137421
  0
CIRCLE
  8
_1-0_
  6
CONTINUOUS
 62
    7
 10
341.45037676836995
 20
108.81261464711783
 40
0.1638122668137421
  0
CIRCLE
  8
_1-0_
  6
CONTINUOUS
 62
    7
 10
343.73256374049834
 20
108.94724665461361
 40
0.1638122668137421
  0
CIRCLE
  8
_1-0_
  6
CONTINUOUS
 62
    7
 10
344.58405365815037
 20
109.05367052232897
 40
0.1638122668137421
  0
CIRCLE
  8
_1-0_
  6
CONTINUOUS
 62
    7
 10
341.08099860114021
 20
107.25988027211783
 40
0.1638122668137421
  0
CIRCLE
  8
_1-0_
  6
CONTINUOUS
 62
    7
 10
341.93248851879224
 20
107.3663041398332
 40
0.1638122668137421
  0
CIRCLE
  8
_1-0_
  6
CONTINUOUS
 62
    7
 10
338.42940871779984
 20
109.67041428024704
 40
0.1638122668137421
  0
CIRCLE
  8
_1-0_
  6
CONTINUOUS
 62
    7
 10
339.28089863545188
 20
109.77683814796242
 40
0.1638122668137421
  0
CIRCLE
  8
_1-0_
  6
CONTINUOUS
 62
    7
 10
342.04519735800255
 20
105.8135697648332
 40
0.1638122668137421
  0
CIRCLE
  8
_1-0_
  6
CONTINUOUS
 62
    7
 10
342.89668727565459
 20
105.91999363254857
 40
0.1638122668137421
  0
CIRCLE
  8
_1-0_
  6
CONTINUOUS
 62
    7
 10
337.4652099609375
 20
108.22410377296242
 40
0.1638122668137421
  0
CIRCLE
  8
_1-0_
  6
CONTINUOUS
 62
    7
 10
338.31669987858953
 20
108.33052764067779
 40
0.1638122668137421
  0
CIRCLE
  8
_1-0_
  6
CONTINUOUS
 62
    7
 10
340.59888685071792
 20
108.70619077940246
 40
0.1638122668137421
  0
CIRCLE
  8
_1-0_
  6
CONTINUOUS
 62
    7
 10
341.45037676836995
 20
108.81261464711783
 40
0.1638122668137421
  0
CIRCLE
  8
_1-0_
  6
CONTINUOUS
 62
    7
 10
336.01889945365286
 20
110.39355716189823
 40
0.1638122668137421
  0
CIRCLE
  8
_1-0_
  6
CONTINUOUS
 62
    7
 10
336.8703893713049
 20
110.49998102961361
 40
0.1638122668137421
  0
CIRCLE
  8
_1-0_
  6
CONTINUOUS
 62
    7
 10
317.3451851509713
 20
117.73155831001901
 40
0.1638122668137421
  0
CIRCLE
  8
_1-0_
  6
CONTINUOUS
 62
    7
 10
317.94000574060391
 20
117.14302269188134
 40
0.1638122668137421
  0
CIRCLE
  8
_1-0_
  6
CONTINUOUS
 62
    7
 10
318.79149565825594
 20
117.24944655959671
 40
0.1638122668137421
  0
CIRCLE
  8
_1-0_
  6
CONTINUOUS
 62
    7
 10
314.45256413640203
 20
120.62417932458827
 40
0.1638122668137421
  0
CIRCLE
  8
_1-0_
  6
CONTINUOUS
 62
    7
 10
315.77052760768584
 20
119.07144494958827
 40
0.1638122668137421
  0
CIRCLE
  8
_1-0_
  6
CONTINUOUS
 62
    7
 10
316.62201752533787
 20
119.17786881730363
 40
0.1638122668137421
  0
CIRCLE
  8
_1-0_
  6
CONTINUOUS
 62
    7
 10
316.97580698374156
 20
118.34828969594595
 40
0.1638122668137421
  0
CIRCLE
  8
_1-0_
  6
CONTINUOUS
 62
    7
 10
317.82729690139359
 20
118.45471356366133
 40
0.1638122668137421
  0
CIRCLE
  8
_1-0_
  6
CONTINUOUS
 62
    7
 10
319.62737212309969
 20
116.66092331345017
 40
0.1638122668137421
  0
CIRCLE
  8
_1-0_
  6
CONTINUOUS
 62
    7
 10
320.47886204075172
 20
116.76734718116555
 40
0.1638122668137421
  0
CIRCLE
  8
_1-0_
  6
CONTINUOUS
 62
    7
 10
330.47468855574328
 20
112.80409117002746
 40
0.1638122668137421
  0
CIRCLE
  8
_1-0_
  6
CONTINUOUS
 62
    7
 10
328.54629104201859
 20
111.35778066274283
 40
0.1638122668137421
  0
CIRCLE
  8
_1-0_
  6
CONTINUOUS
 62
    7
 10
329.39778095967063
 20
111.4642045304582
 40
0.1638122668137421
  0
CIRCLE
  8
_1-0_
  6
CONTINUOUS
 62
    7
 10
328.78734691722974
 20
112.08093591638514
 40
0.1638122668137421
  0
CIRCLE
  8
_1-0_
  6
CONTINUOUS
 62
    7
 10
329.63883683488177
 20
112.18735978410051
 40
0.1638122668137421
  0
CIRCLE
  8
_1-0_
  6
CONTINUOUS
 62
    7
 10
323.96630364495354
 20
113.5272587956609
 40
0.1638122668137421
  0
CIRCLE
  8
_1-0_
  6
CONTINUOUS
 62
    7
 10
324.81779356260557
 20
113.63368266337628
 40
0.1638122668137421
  0
CIRCLE
  8
_1-0_
  6
CONTINUOUS
 62
    7
 10
318.18106161581505
 20
115.93776805980787
 40
0.1638122668137421
  0
CIRCLE
  8
_1-0_
  6
CONTINUOUS
 62
    7
 10
319.03255153346709
 20
116.04419192752323
 40
0.1638122668137421
  0
CIRCLE
  8
_1-0_
  6
CONTINUOUS
 62
    7
 10
318.90420449746625
 20
118.83038907437712
 40
0.1638122668137421
  0
CIRCLE
  8
_1-0_
  6
CONTINUOUS
 62
    7
 10
319.75569441511828
 20
118.93681294209249
 40
0.1638122668137421
  0
CIRCLE
  8
_1-0_
  6
CONTINUOUS
 62
    7
 10
325.17155827702703
 20
115.45565630938556
 40
0.1638122668137421
  0
CIRCLE
  8
_1-0_
  6
CONTINUOUS
 62
    7
 10
326.02304819467906
 20
115.56208017710094
 40
0.1638122668137421
  0
CIRCLE
  8
_1-0_
  6
CONTINUOUS
 62
    7
 10
328.30523516680745
 20
115.69671218459671
 40
0.1638122668137421
  0
CIRCLE
  8
_1-0_
  6
CONTINUOUS
 62
    7
 10
329.15672508445948
 20
115.80313605231208
 40
0.1638122668137421
  0
CIRCLE
  8
_1-0_
  6
CONTINUOUS
 62
    7
 10
325.65367002744932
 20
114.00934580210094
 40
0.1638122668137421
  0
CIRCLE
  8
_1-0_
  6
CONTINUOUS
 62
    7
 10
326.50515994510135
 20
114.1157696698163
 40
0.1638122668137421
  0
CIRCLE
  8
_1-0_
  6
CONTINUOUS
 62
    7
 10
323.00208014410896
 20
116.41987981023016
 40
0.1638122668137421
  0
CIRCLE
  8
_1-0_
  6
CONTINUOUS
 62
    7
 10
323.85357006176099
 20
116.52630367794553
 40
0.1638122668137421
  0
CIRCLE
  8
_1-0_
  6
CONTINUOUS
 62
    7
 10
326.61786878431167
 20
112.5630352948163
 40
0.1638122668137421
  0
CIRCLE
  8
_1-0_
  6
CONTINUOUS
 62
    7
 10
327.4693587019637
 20
112.66945916253168
 40
0.1638122668137421
  0
CIRCLE
  8
_1-0_
  6
CONTINUOUS
 62
    7
 10
325.17155827702703
 20
115.45565630938556
 40
0.1638122668137421
  0
CIRCLE
  8
_1-0_
  6
CONTINUOUS
 62
    7
 10
326.02304819467906
 20
115.56208017710094
 40
0.1638122668137421
  0
CIRCLE
  8
_1-0_
  6
CONTINUOUS
 62
    7
 10
320.59157087996203
 20
117.14302269188134
 40
0.1638122668137421
  0
CIRCLE
  8
_1-0_
  6
CONTINUOUS
 62
    7
 10
321.44306079761407
 20
117.24944655959671
 40
0.1638122668137421
  0
CIRCLE
  8
_1-0_
  6
CONTINUOUS
 62
    7
 10
350.72308514569261
 20
100.75149536132812
 40
0.1638122668137421
  0
CIRCLE
  8
_1-0_
  6
CONTINUOUS
 62
    7
 10
351.57457506334464
 20
100.8579192290435
 40
0.1638122668137421
  0
CIRCLE
  8
_1-0_
  6
CONTINUOUS
 62
    7
 10
352.16939565297724
 20
100.26938361090583
 40
0.1638122668137421
  0
CIRCLE
  8
_1-0_
  6
CONTINUOUS
 62
    7
 10
353.02088557062922
 20
100.37580747862121
 40
0.1638122668137421
  0
CIRCLE
  8
_1-0_
  6
CONTINUOUS
 62
    7
 10
348.68195404877537
 20
103.75054024361276
 40
0.1638122668137421
  0
CIRCLE
  8
_1-0_
  6
CONTINUOUS
 62
    7
 10
349.99991752005911
 20
102.19780586861276
 40
0.1638122668137421
  0
CIRCLE
  8
_1-0_
  6
CONTINUOUS
 62
    7
 10
350.85140743771115
 20
102.30422973632812
 40
0.1638122668137421
  0
CIRCLE
  8
_1-0_
  6
CONTINUOUS
 62
    7
 10
351.2051968961149
 20
101.47465061497044
 40
0.1638122668137421
  0
CIRCLE
  8
_1-0_
  6
CONTINUOUS
 62
    7
 10
352.05668681376693
 20
101.58107448268582
 40
0.1638122668137421
  0
CIRCLE
  8
_1-0_
  6
CONTINUOUS
 62
    7
 10
353.85676203547297
 20
99.787284232474661
 40
0.1638122668137421
  0
CIRCLE
  8
_1-0_
  6
CONTINUOUS
 62
    7
 10
354.708251953125
 20
99.89370810019004
 40
0.1638122668137421
  0
CIRCLE
  8
_1-0_
  6
CONTINUOUS
 62
    7
 10
364.70407846811656
 20
95.930452089051954
 40
0.1638122668137421
  0
CIRCLE
  8
_1-0_
  6
CONTINUOUS
 62
    7
 10
362.77568095439193
 20
94.484141581767318
 40
0.1638122668137421
  0
CIRCLE
  8
_1-0_
  6
CONTINUOUS
 62
    7
 10
363.62717087204396
 20
94.590565449482696
 40
0.1638122668137421
  0
CIRCLE
  8
_1-0_
  6
CONTINUOUS
 62
    7
 10
363.01673682960308
 20
95.207296835409636
 40
0.1638122668137421
  0
CIRCLE
  8
_1-0_
  6
CONTINUOUS
 62
    7
 10
363.86822674725511
 20
95.313720703125
 40
0.1638122668137421
  0
CIRCLE
  8
_1-0_
  6
CONTINUOUS
 62
    7
 10
358.19569355732688
 20
96.653619714685391
 40
0.1638122668137421
  0
CIRCLE
  8
_1-0_
  6
CONTINUOUS
 62
    7
 10
359.04718347497891
 20
96.760043582400769
 40
0.1638122668137421
  0
CIRCLE
  8
_1-0_
  6
CONTINUOUS
 62
    7
 10
354.57990491712417
 20
98.099930221970027
 40
0.1638122668137421
  0
CIRCLE
  8
_1-0_
  6
CONTINUOUS
 62
    7
 10
355.4313948347762
 20
98.206354089685391
 40
0.1638122668137421
  0
CIRCLE
  8
_1-0_
  6
CONTINUOUS
 62
    7
 10
352.41045152818839
 20
99.064128978832358
 40
0.1638122668137421
  0
CIRCLE
  8
_1-0_
  6
CONTINUOUS
 62
    7
 10
353.26194144584036
 20
99.170552846547722
 40
0.1638122668137421
  0
CIRCLE
  8
_1-0_
  6
CONTINUOUS
 62
    7
 10
353.13359440983953
 20
101.95674999340162
 40
0.1638122668137421
  0
CIRCLE
  8
_1-0_
  6
CONTINUOUS
 62
    7
 10
353.98508432749156
 20
102.06317386111698
 40
0.1638122668137421
  0
CIRCLE
  8
_1-0_
  6
CONTINUOUS
 62
    7
 10
359.40094818940037
 20
98.582017228410052
 40
0.1638122668137421
  0
CIRCLE
  8
_1-0_
  6
CONTINUOUS
 62
    7
 10
360.2524381070524
 20
98.68844109612543
 40
0.1638122668137421
  0
CIRCLE
  8
_1-0_
  6
CONTINUOUS
 62
    7
 10
362.53462507918078
 20
98.823073103621198
 40
0.1638122668137421
  0
CIRCLE
  8
_1-0_
  6
CONTINUOUS
 62
    7
 10
363.38611499683282
 20
98.929496971336576
 40
0.1638122668137421
  0
CIRCLE
  8
_1-0_
  6
CONTINUOUS
 62
    7
 10
359.88305993982266
 20
97.13570672112543
 40
0.1638122668137421
  0
CIRCLE
  8
_1-0_
  6
CONTINUOUS
 62
    7
 10
360.73454985747469
 20
97.242130588840794
 40
0.1638122668137421
  0
CIRCLE
  8
_1-0_
  6
CONTINUOUS
 62
    7
 10
357.23147005648229
 20
99.546240729254649
 40
0.1638122668137421
  0
CIRCLE
  8
_1-0_
  6
CONTINUOUS
 62
    7
 10
358.08295997413433
 20
99.652664596970027
 40
0.1638122668137421
  0
CIRCLE
  8
_1-0_
  6
CONTINUOUS
 62
    7
 10
360.847258696685
 20
95.689396213840794
 40
0.1638122668137421
  0
CIRCLE
  8
_1-0_
  6
CONTINUOUS
 62
    7
 10
361.69874861433703
 20
95.795820081556172
 40
0.1638122668137421
  0
CIRCLE
  8
_1-0_
  6
CONTINUOUS
 62
    7
 10
356.26727129961995
 20
98.099930221970027
 40
0.1638122668137421
  0
CIRCLE
  8
_1-0_
  6
CONTINUOUS
 62
    7
 10
357.11876121727198
 20
98.206354089685391
 40
0.1638122668137421
  0
CIRCLE
  8
_1-0_
  6
CONTINUOUS
 62
    7
 10
359.40094818940037
 20
98.582017228410052
 40
0.1638122668137421
  0
CIRCLE
  8
_1-0_
  6
CONTINUOUS
 62
    7
 10
360.2524381070524
 20
98.68844109612543
 40
0.1638122668137421
  0
CIRCLE
  8
_1-0_
  6
CONTINUOUS
 62
    7
 10
354.82096079233531
 20
100.26938361090583
 40
0.1638122668137421
  0
CIRCLE
  8
_1-0_
  6
CONTINUOUS
 62
    7
 10
355.67245070998734
 20
100.37580747862121
 40
0.1638122668137421
  0
CIRCLE
  8
_1-0_
  6
CONTINUOUS
 62
    7
 10
345.90204187341641
 20
105.57253863360431
 40
0.1638122668137421
  0
CIRCLE
  8
_1-0_
  6
CONTINUOUS
 62
    7
 10
346.75353179106844
 20
105.67896250131969
 40
0.1638122668137421
  0
CIRCLE
  8
_1-0_
  6
CONTINUOUS
 62
    7
 10
347.34835238070104
 20
105.09042688318202
 40
0.1638122668137421
  0
CIRCLE
  8
_1-0_
  6
CONTINUOUS
 62
    7
 10
348.19984229835308
 20
105.19685075089738
 40
0.1638122668137421
  0
CIRCLE
  8
_1-0_
  6
CONTINUOUS
 62
    7
 10
343.86091077649917
 20
108.57158351588895
 40
0.1638122668137421
  0
CIRCLE
  8
_1-0_
  6
CONTINUOUS
 62
    7
 10
345.17887424778297
 20
107.01884914088895
 40
0.1638122668137421
  0
CIRCLE
  8
_1-0_
  6
CONTINUOUS
 62
    7
 10
346.030364165435
 20
107.12527300860431
 40
0.1638122668137421
  0
CIRCLE
  8
_1-0_
  6
CONTINUOUS
 62
    7
 10
346.3841536238387
 20
106.29569388724663
 40
0.1638122668137421
  0
CIRCLE
  8
_1-0_
  6
CONTINUOUS
 62
    7
 10
347.23564354149073
 20
106.40211775496199
 40
0.1638122668137421
  0
CIRCLE
  8
_1-0_
  6
CONTINUOUS
 62
    7
 10
349.03571876319683
 20
104.60832750475085
 40
0.1638122668137421
  0
CIRCLE
  8
_1-0_
  6
CONTINUOUS
 62
    7
 10
349.88720868084886
 20
104.71475137246622
 40
0.1638122668137421
  0
CIRCLE
  8
_1-0_
  6
CONTINUOUS
 62
    7
 10
359.88303519584036
 20
100.75149536132812
 40
0.1638122668137421
  0
CIRCLE
  8
_1-0_
  6
CONTINUOUS
 62
    7
 10
357.95463768211573
 20
99.305184854043503
 40
0.1638122668137421
  0
CIRCLE
  8
_1-0_
  6
CONTINUOUS
 62
    7
 10
358.80612759976776
 20
99.411608721758867
 40
0.1638122668137421
  0
CIRCLE
  8
_1-0_
  6
CONTINUOUS
 62
    7
 10
358.19569355732688
 20
100.02834010768582
 40
0.1638122668137421
  0
CIRCLE
  8
_1-0_
  6
CONTINUOUS
 62
    7
 10
359.04718347497891
 20
100.13476397540119
 40
0.1638122668137421
  0
CIRCLE
  8
_1-0_
  6
CONTINUOUS
 62
    7
 10
353.37465028505068
 20
101.47466298696158
 40
0.1638122668137421
  0
CIRCLE
  8
_1-0_
  6
CONTINUOUS
 62
    7
 10
354.22614020270271
 20
101.58108685467695
 40
0.1638122668137421
  0
CIRCLE
  8
_1-0_
  6
CONTINUOUS
 62
    7
 10
349.75886164484797
 20
102.92097349424621
 40
0.1638122668137421
  0
CIRCLE
  8
_1-0_
  6
CONTINUOUS
 62
    7
 10
350.6103515625
 20
103.02739736196158
 40
0.1638122668137421
  0
CIRCLE
  8
_1-0_
  6
CONTINUOUS
 62
    7
 10
347.58940825591219
 20
103.88517225110854
 40
0.1638122668137421
  0
CIRCLE
  8
_1-0_
  6
CONTINUOUS
 62
    7
 10
348.44089817356422
 20
103.99159611882391
 40
0.1638122668137421
  0
CIRCLE
  8
_1-0_
  6
CONTINUOUS
 62
    7
 10
348.31255113756339
 20
106.77779326567779
 40
0.1638122668137421
  0
CIRCLE
  8
_1-0_
  6
CONTINUOUS
 62
    7
 10
349.16404105521536
 20
106.88421713339316
 40
0.1638122668137421
  0
CIRCLE
  8
_1-0_
  6
CONTINUOUS
 62
    7
 10
354.57990491712417
 20
103.40306050068624
 40
0.1638122668137421
  0
CIRCLE
  8
_1-0_
  6
CONTINUOUS
 62
    7
 10
355.4313948347762
 20
103.50948436840162
 40
0.1638122668137421
  0
CIRCLE
  8
_1-0_
  6
CONTINUOUS
 62
    7
 10
357.71358180690459
 20
103.64411637589738
 40
0.1638122668137421
  0
CIRCLE
  8
_1-0_
  6
CONTINUOUS
 62
    7
 10
358.56507172455662
 20
103.75054024361276
 40
0.1638122668137421
  0
CIRCLE
  8
_1-0_
  6
CONTINUOUS
 62
    7
 10
355.06201666754646
 20
101.95674999340162
 40
0.1638122668137421
  0
CIRCLE
  8
_1-0_
  6
CONTINUOUS
 62
    7
 10
355.91350658519849
 20
102.06317386111698
 40
0.1638122668137421
  0
CIRCLE
  8
_1-0_
  6
CONTINUOUS
 62
    7
 10
352.41042678420609
 20
104.36728400153083
 40
0.1638122668137421
  0
CIRCLE
  8
_1-0_
  6
CONTINUOUS
 62
    7
 10
353.26191670185813
 20
104.47370786924621
 40
0.1638122668137421
  0
CIRCLE
  8
_1-0_
  6
CONTINUOUS
 62
    7
 10
356.0262154244088
 20
100.51043948611698
 40
0.1638122668137421
  0
CIRCLE
  8
_1-0_
  6
CONTINUOUS
 62
    7
 10
356.87770534206084
 20
100.61686335383236
 40
0.1638122668137421
  0
CIRCLE
  8
_1-0_
  6
CONTINUOUS
 62
    7
 10
351.44622802734375
 20
102.92097349424621
 40
0.1638122668137421
  0
CIRCLE
  8
_1-0_
  6
CONTINUOUS
 62
    7
 10
352.29771794499578
 20
103.02739736196158
 40
0.1638122668137421
  0
CIRCLE
  8
_1-0_
  6
CONTINUOUS
 62
    7
 10
354.57990491712417
 20
103.40306050068624
 40
0.1638122668137421
  0
CIRCLE
  8
_1-0_
  6
CONTINUOUS
 62
    7
 10
355.4313948347762
 20
103.50948436840162
 40
0.1638122668137421
  0
CIRCLE
  8
_1-0_
  6
CONTINUOUS
 62
    7
 10
349.99991752005911
 20
105.09042688318202
 40
0.1638122668137421
  0
CIRCLE
  8
_1-0_
  6
CONTINUOUS
 62
    7
 10
350.85140743771115
 20
105.19685075089738
 40
0.1638122668137421
  0
CIRCLE
  8
_1-0_
  6
CONTINUOUS
 62
    7
 10
279.85382080078125
 20
132.32929539036107
 40
0.1638122668137421
  0
CIRCLE
  8
_1-0_
  6
CONTINUOUS
 62
    7
 10
280.70531071843328
 20
132.43571925807643
 40
0.1638122668137421
  0
CIRCLE
  8
_1-0_
  6
CONTINUOUS
 62
    7
 10
281.30013130806589
 20
131.84718363993878
 40
0.1638122668137421
  0
CIRCLE
  8
_1-0_
  6
CONTINUOUS
 62
    7
 10
282.15162122571792
 20
131.95360750765414
 40
0.1638122668137421
  0
CIRCLE
  8
_1-0_
  6
CONTINUOUS
 62
    7
 10
277.81268970386401
 20
135.3283402726457
 40
0.1638122668137421
  0
CIRCLE
  8
_1-0_
  6
CONTINUOUS
 62
    7
 10
279.13065317514781
 20
133.7756058976457
 40
0.1638122668137421
  0
CIRCLE
  8
_1-0_
  6
CONTINUOUS
 62
    7
 10
279.98214309279984
 20
133.88202976536107
 40
0.1638122668137421
  0
CIRCLE
  8
_1-0_
  6
CONTINUOUS
 62
    7
 10
280.33593255120354
 20
133.05245064400339
 40
0.1638122668137421
  0
CIRCLE
  8
_1-0_
  6
CONTINUOUS
 62
    7
 10
281.18742246885557
 20
133.15887451171875
 40
0.1638122668137421
  0
CIRCLE
  8
_1-0_
  6
CONTINUOUS
 62
    7
 10
282.98749769056167
 20
131.3650842615076
 40
0.1638122668137421
  0
CIRCLE
  8
_1-0_
  6
CONTINUOUS
 62
    7
 10
283.8389876082137
 20
131.47150812922297
 40
0.1638122668137421
  0
CIRCLE
  8
_1-0_
  6
CONTINUOUS
 62
    7
 10
293.83481412320526
 20
127.50825211808488
 40
0.1638122668137421
  0
CIRCLE
  8
_1-0_
  6
CONTINUOUS
 62
    7
 10
282.26433006492823
 20
133.53455002243456
 40
0.1638122668137421
  0
CIRCLE
  8
_1-0_
  6
CONTINUOUS
 62
    7
 10
283.11581998258026
 20
133.64097389014992
 40
0.1638122668137421
  0
CIRCLE
  8
_1-0_
  6
CONTINUOUS
 62
    7
 10
288.53168384448901
 20
130.159817257443
 40
0.1638122668137421
  0
CIRCLE
  8
_1-0_
  6
CONTINUOUS
 62
    7
 10
289.38317376214104
 20
130.26624112515836
 40
0.1638122668137421
  0
CIRCLE
  8
_1-0_
  6
CONTINUOUS
 62
    7
 10
291.66536073426943
 20
130.40087313265414
 40
0.1638122668137421
  0
CIRCLE
  8
_1-0_
  6
CONTINUOUS
 62
    7
 10
292.51685065192146
 20
130.5072970003695
 40
0.1638122668137421
  0
CIRCLE
  8
_1-0_
  6
CONTINUOUS
 62
    7
 10
287.21369562922297
 20
131.23046462600297
 40
0.1638122668137421
  0
CIRCLE
  8
_1-0_
  6
CONTINUOUS
 62
    7
 10
288.53168384448901
 20
130.159817257443
 40
0.1638122668137421
  0
CIRCLE
  8
_1-0_
  6
CONTINUOUS
 62
    7
 10
289.38317376214104
 20
130.26624112515836
 40
0.1638122668137421
  0
CIRCLE
  8
_1-0_
  6
CONTINUOUS
 62
    7
 10
283.95169644742401
 20
131.84718363993878
 40
0.1638122668137421
  0
CIRCLE
  8
_1-0_
  6
CONTINUOUS
 62
    7
 10
284.80318636507604
 20
131.95360750765414
 40
0.1638122668137421
  0
CIRCLE
  8
_1-0_
  6
CONTINUOUS
 62
    7
 10
315.8894966744088
 20
119.32812664959883
 40
0.1638122668137421
  0
CIRCLE
  8
_1-0_
  6
CONTINUOUS
 62
    7
 10
329.74216770481422
 20
112.95434900232264
 40
0.1638122668137421
  0
CIRCLE
  8
_1-0_
  6
CONTINUOUS
 62
    7
 10
329.74219244879646
 20
112.4722619958826
 40
0.1638122668137421
  0
CIRCLE
  8
_1-0_
  6
CONTINUOUS
 62
    7
 10
331.18850295608109
 20
111.99015024546031
 40
0.1638122668137421
  0
CIRCLE
  8
_1-0_
  6
CONTINUOUS
 62
    7
 10
332.03999287373313
 20
112.09657411317568
 40
0.1638122668137421
  0
CIRCLE
  8
_1-0_
  6
CONTINUOUS
 62
    7
 10
330.22430419921875
 20
113.19541724952492
 40
0.1638122668137421
  0
CIRCLE
  8
_1-0_
  6
CONTINUOUS
 62
    7
 10
331.07579411687078
 20
113.30184111724029
 40
0.1638122668137421
  0
CIRCLE
  8
_1-0_
  6
CONTINUOUS
 62
    7
 10
315.34475790487755
 20
120.78069738439612
 40
0.1638122668137421
  0
CIRCLE
  8
_1-0_
  6
CONTINUOUS
 62
    7
 10
329.19742893528297
 20
114.40691973711994
 40
0.1638122668137421
  0
CIRCLE
  8
_1-0_
  6
CONTINUOUS
 62
    7
 10
329.19745367926521
 20
113.92483273067991
 40
0.1638122668137421
  0
CIRCLE
  8
_1-0_
  6
CONTINUOUS
 62
    7
 10
330.64376418654984
 20
113.4427209802576
 40
0.1638122668137421
  0
CIRCLE
  8
_1-0_
  6
CONTINUOUS
 62
    7
 10
331.49525410420188
 20
113.54914484797298
 40
0.1638122668137421
  0
CIRCLE
  8
_1-0_
  6
CONTINUOUS
 62
    7
 10
329.6795654296875
 20
114.64798798432221
 40
0.1638122668137421
  0
CIRCLE
  8
_1-0_
  6
CONTINUOUS
 62
    7
 10
330.53105534733953
 20
114.75441185203759
 40
0.1638122668137421
  0
CIRCLE
  8
_1-0_
  6
CONTINUOUS
 62
    7
 10
310.80547435863599
 20
122.77798214474241
 40
0.1638122668137421
  0
CIRCLE
  8
_1-0_
  6
CONTINUOUS
 62
    7
 10
324.65814538904141
 20
116.40420449746622
 40
0.1638122668137421
  0
CIRCLE
  8
_1-0_
  6
CONTINUOUS
 62
    7
 10
324.65817013302365
 20
115.92211749102619
 40
0.1638122668137421
  0
CIRCLE
  8
_1-0_
  6
CONTINUOUS
 62
    7
 10
326.10448064030828
 20
115.44000574060389
 40
0.1638122668137421
  0
CIRCLE
  8
_1-0_
  6
CONTINUOUS
 62
    7
 10
326.95597055796031
 20
115.54642960831926
 40
0.1638122668137421
  0
CIRCLE
  8
_1-0_
  6
CONTINUOUS
 62
    7
 10
325.14028188344594
 20
116.6452727446685
 40
0.1638122668137421
  0
CIRCLE
  8
_1-0_
  6
CONTINUOUS
 62
    7
 10
325.99177180109797
 20
116.75169661238388
 40
0.1638122668137421
  0
CIRCLE
  8
_1-0_
  6
CONTINUOUS
 62
    7
 10
306.99247617979307
 20
121.87012543549409
 40
0.1638122668137421
  0
CIRCLE
  8
_1-0_
  6
CONTINUOUS
 62
    7
 10
320.84514721019849
 20
115.49634778821792
 40
0.1638122668137421
  0
CIRCLE
  8
_1-0_
  6
CONTINUOUS
 62
    7
 10
320.84517195418078
 20
115.01426078177788
 40
0.1638122668137421
  0
CIRCLE
  8
_1-0_
  6
CONTINUOUS
 62
    7
 10
322.29148246146536
 20
114.53214903135559
 40
0.1638122668137421
  0
CIRCLE
  8
_1-0_
  6
CONTINUOUS
 62
    7
 10
323.1429723791174
 20
114.63857289907095
 40
0.1638122668137421
  0
CIRCLE
  8
_1-0_
  6
CONTINUOUS
 62
    7
 10
321.32728370460308
 20
115.7374160354202
 40
0.1638122668137421
  0
CIRCLE
  8
_1-0_
  6
CONTINUOUS
 62
    7
 10
322.17877362225511
 20
115.84383990313556
 40
0.1638122668137421
  0
CIRCLE
  8
_1-0_
  6
CONTINUOUS
 62
    7
 10
303.72419202649917
 20
125.68312361433701
 40
0.1638122668137421
  0
CIRCLE
  8
_1-0_
  6
CONTINUOUS
 62
    7
 10
317.57686305690459
 20
119.30934596706082
 40
0.1638122668137421
  0
CIRCLE
  8
_1-0_
  6
CONTINUOUS
 62
    7
 10
317.57688780088682
 20
118.82725896062078
 40
0.1638122668137421
  0
CIRCLE
  8
_1-0_
  6
CONTINUOUS
 62
    7
 10
319.02319830817146
 20
118.34514721019849
 40
0.1638122668137421
  0
CIRCLE
  8
_1-0_
  6
CONTINUOUS
 62
    7
 10
319.87468822582349
 20
118.45157107791385
 40
0.1638122668137421
  0
CIRCLE
  8
_1-0_
  6
CONTINUOUS
 62
    7
 10
318.05899955130911
 20
119.5504142142631
 40
0.1638122668137421
  0
CIRCLE
  8
_1-0_
  6
CONTINUOUS
 62
    7
 10
318.91048946896115
 20
119.65683808197846
 40
0.1638122668137421
  0
CIRCLE
  8
_1-0_
  6
CONTINUOUS
 62
    7
 10
292.64834017366979
 20
128.40669374208193
 40
0.1638122668137421
  0
CIRCLE
  8
_1-0_
  6
CONTINUOUS
 62
    7
 10
306.50101120407521
 20
122.03291609480576
 40
0.1638122668137421
  0
CIRCLE
  8
_1-0_
  6
CONTINUOUS
 62
    7
 10
306.50103594805745
 20
121.55082908836572
 40
0.1638122668137421
  0
CIRCLE
  8
_1-0_
  6
CONTINUOUS
 62
    7
 10
307.94734645534209
 20
121.06871733794343
 40
0.1638122668137421
  0
CIRCLE
  8
_1-0_
  6
CONTINUOUS
 62
    7
 10
308.79883637299412
 20
121.17514120565879
 40
0.1638122668137421
  0
CIRCLE
  8
_1-0_
  6
CONTINUOUS
 62
    7
 10
306.98314769847974
 20
122.27398434200803
 40
0.1638122668137421
  0
CIRCLE
  8
_1-0_
  6
CONTINUOUS
 62
    7
 10
307.83463761613177
 20
122.3804082097234
 40
0.1638122668137421
  0
CIRCLE
  8
_1-0_
  6
CONTINUOUS
 62
    7
 10
289.74319870407521
 20
129.49613416517104
 40
0.1638122668137421
  0
CIRCLE
  8
_1-0_
  6
CONTINUOUS
 62
    7
 10
303.59586973448057
 20
123.12235651789486
 40
0.1638122668137421
  0
CIRCLE
  8
_1-0_
  6
CONTINUOUS
 62
    7
 10
303.59589447846287
 20
122.64026951145482
 40
0.1638122668137421
  0
CIRCLE
  8
_1-0_
  6
CONTINUOUS
 62
    7
 10
305.0422049857475
 20
122.15815776103253
 40
0.1638122668137421
  0
CIRCLE
  8
_1-0_
  6
CONTINUOUS
 62
    7
 10
305.89369490339953
 20
122.26458162874789
 40
0.1638122668137421
  0
CIRCLE
  8
_1-0_
  6
CONTINUOUS
 62
    7
 10
304.07800622888516
 20
123.36342476509714
 40
0.1638122668137421
  0
CIRCLE
  8
_1-0_
  6
CONTINUOUS
 62
    7
 10
304.92949614653719
 20
123.4698486328125
 40
0.1638122668137421
  0
CIRCLE
  8
_1-0_
  6
CONTINUOUS
 62
    7
 10
289.92477004592484
 20
131.67499026736698
 40
0.1638122668137421
  0
CIRCLE
  8
_1-0_
  6
CONTINUOUS
 62
    7
 10
303.77744107633026
 20
125.30121262009079
 40
0.1638122668137421
  0
CIRCLE
  8
_1-0_
  6
CONTINUOUS
 62
    7
 10
303.7774658203125
 20
124.81912561365077
 40
0.1638122668137421
  0
CIRCLE
  8
_1-0_
  6
CONTINUOUS
 62
    7
 10
305.22377632759714
 20
124.33701386322846
 40
0.1638122668137421
  0
CIRCLE
  8
_1-0_
  6
CONTINUOUS
 62
    7
 10
306.07526624524917
 20
124.44343773094384
 40
0.1638122668137421
  0
CIRCLE
  8
_1-0_
  6
CONTINUOUS
 62
    7
 10
304.25957757073479
 20
125.54228086729309
 40
0.1638122668137421
  0
CIRCLE
  8
_1-0_
  6
CONTINUOUS
 62
    7
 10
305.11106748838682
 20
125.64870473500845
 40
0.1638122668137421
  0
CIRCLE
  8
_1-0_
  6
CONTINUOUS
 62
    7
 10
274.85432392842063
 20
138.57471362964529
 40
0.1638122668137421
  0
CIRCLE
  8
_1-0_
  6
CONTINUOUS
 62
    7
 10
288.70699495882604
 20
132.20093598236909
 40
0.1638122668137421
  0
CIRCLE
  8
_1-0_
  6
CONTINUOUS
 62
    7
 10
288.70701970280828
 20
131.71884897592906
 40
0.1638122668137421
  0
CIRCLE
  8
_1-0_
  6
CONTINUOUS
 62
    7
 10
290.15333021009292
 20
131.23673722550677
 40
0.1638122668137421
  0
CIRCLE
  8
_1-0_
  6
CONTINUOUS
 62
    7
 10
291.00482012774495
 20
131.34316109322214
 40
0.1638122668137421
  0
CIRCLE
  8
_1-0_
  6
CONTINUOUS
 62
    7
 10
289.18913145323057
 20
132.44200422957138
 40
0.1638122668137421
  0
CIRCLE
  8
_1-0_
  6
CONTINUOUS
 62
    7
 10
290.0406213708826
 20
132.54842809728675
 40
0.1638122668137421
  0
CIRCLE
  8
_1-0_
  6
CONTINUOUS
 62
    7
 10
272.13075380067568
 20
140.3904270481419
 40
0.1638122668137421
  0
CIRCLE
  8
_1-0_
  6
CONTINUOUS
 62
    7
 10
285.98342483108109
 20
134.01664940086573
 40
0.1638122668137421
  0
CIRCLE
  8
_1-0_
  6
CONTINUOUS
 62
    7
 10
285.98344957506333
 20
133.53456239442568
 40
0.1638122668137421
  0
CIRCLE
  8
_1-0_
  6
CONTINUOUS
 62
    7
 10
287.42976008234797
 20
133.05245064400339
 40
0.1638122668137421
  0
CIRCLE
  8
_1-0_
  6
CONTINUOUS
 62
    7
 10
288.28125
 20
133.15887451171875
 40
0.1638122668137421
  0
CIRCLE
  8
_1-0_
  6
CONTINUOUS
 62
    7
 10
286.46556132548568
 20
134.257717648068
 40
0.1638122668137421
  0
CIRCLE
  8
_1-0_
  6
CONTINUOUS
 62
    7
 10
287.31705124313771
 20
134.36414151578336
 40
0.1638122668137421
  0
CIRCLE
  8
_1-0_
  6
CONTINUOUS
 62
    7
 10
267.40987416860219
 20
142.20614046663852
 40
0.1638122668137421
  0
CIRCLE
  8
_1-0_
  6
CONTINUOUS
 62
    7
 10
281.2625451990076
 20
135.83236281936234
 40
0.1638122668137421
  0
CIRCLE
  8
_1-0_
  6
CONTINUOUS
 62
    7
 10
281.2625699429899
 20
135.35027581292229
 40
0.1638122668137421
  0
CIRCLE
  8
_1-0_
  6
CONTINUOUS
 62
    7
 10
282.70888045027453
 20
134.8681640625
 40
0.1638122668137421
  0
CIRCLE
  8
_1-0_
  6
CONTINUOUS
 62
    7
 10
283.56037036792651
 20
134.97458793021539
 40
0.1638122668137421
  0
CIRCLE
  8
_1-0_
  6
CONTINUOUS
 62
    7
 10
281.74468169341219
 20
136.07343106656461
 40
0.1638122668137421
  0
CIRCLE
  8
_1-0_
  6
CONTINUOUS
 62
    7
 10
282.59617161106422
 20
136.17985493428
 40
0.1638122668137421
  0
CIRCLE
  8
_1-0_
  6
CONTINUOUS
 62
    7
 10
281.93560626055745
 20
132.40127563476562
 40
0.1638122668137421
  0
CIRCLE
  8
_1-0_
  6
CONTINUOUS
 62
    7
 10
295.78827729096287
 20
126.02749798748945
 40
0.1638122668137421
  0
CIRCLE
  8
_1-0_
  6
CONTINUOUS
 62
    7
 10
295.7883020349451
 20
125.54541098104941
 40
0.1638122668137421
  0
CIRCLE
  8
_1-0_
  6
CONTINUOUS
 62
    7
 10
297.23461254222974
 20
125.06329923062712
 40
0.1638122668137421
  0
CIRCLE
  8
_1-0_
  6
CONTINUOUS
 62
    7
 10
298.08610245988177
 20
125.16972309834249
 40
0.1638122668137421
  0
CIRCLE
  8
_1-0_
  6
CONTINUOUS
 62
    7
 10
296.2704137853674
 20
126.26856623469173
 40
0.1638122668137421
  0
CIRCLE
  8
_1-0_
  6
CONTINUOUS
 62
    7
 10
297.12190370301943
 20
126.3749901024071
 40
0.1638122668137421
  0
CIRCLE
  8
_1-0_
  6
CONTINUOUS
 62
    7
 10
287.9274605415963
 20
130.40399087441935
 40
0.1638122668137421
  0
CIRCLE
  8
_1-0_
  6
CONTINUOUS
 62
    7
 10
301.78013157200172
 20
124.03021322714316
 40
0.1638122668137421
  0
CIRCLE
  8
_1-0_
  6
CONTINUOUS
 62
    7
 10
301.78015631598396
 20
123.54812622070312
 40
0.1638122668137421
  0
CIRCLE
  8
_1-0_
  6
CONTINUOUS
 62
    7
 10
303.22646682326859
 20
123.06601447028083
 40
0.1638122668137421
  0
CIRCLE
  8
_1-0_
  6
CONTINUOUS
 62
    7
 10
304.07795674092063
 20
123.17243833799621
 40
0.1638122668137421
  0
CIRCLE
  8
_1-0_
  6
CONTINUOUS
 62
    7
 10
302.26226806640625
 20
124.27128147434544
 40
0.1638122668137421
  0
CIRCLE
  8
_1-0_
  6
CONTINUOUS
 62
    7
 10
303.11375798405828
 20
124.37770534206082
 40
0.1638122668137421
  0
CIRCLE
  8
_1-0_
  6
CONTINUOUS
 62
    7
 10
324.24177839949328
 20
115.87827115445525
 40
0.1638122668137421
  0
CIRCLE
  8
_1-0_
  6
CONTINUOUS
 62
    7
 10
338.09444942989865
 20
109.50449350717906
 40
0.1638122668137421
  0
CIRCLE
  8
_1-0_
  6
CONTINUOUS
 62
    7
 10
338.09447417388094
 20
109.02240650073902
 40
0.1638122668137421
  0
CIRCLE
  8
_1-0_
  6
CONTINUOUS
 62
    7
 10
339.54078468116558
 20
108.54029475031673
 40
0.1638122668137421
  0
CIRCLE
  8
_1-0_
  6
CONTINUOUS
 62
    7
 10
340.39227459881761
 20
108.6467186180321
 40
0.1638122668137421
  0
CIRCLE
  8
_1-0_
  6
CONTINUOUS
 62
    7
 10
338.57658592430323
 20
109.74556175438134
 40
0.1638122668137421
  0
CIRCLE
  8
_1-0_
  6
CONTINUOUS
 62
    7
 10
339.42807584195526
 20
109.85198562209671
 40
0.1638122668137421
  0
CIRCLE
  8
_1-0_
  6
CONTINUOUS
 62
    7
 10
30.16435262319203
 20
94.174575805664063
 40
0.1638122668137421
  0
CIRCLE
  8
_1-0_
  6
CONTINUOUS
 62
    7
 10
32.59678505562448
 20
93.942910271721928
 40
0.1638122668137421
  0
CIRCLE
  8
_1-0_
  6
CONTINUOUS
 62
    7
 10
28.311071653623856
 20
94.058743038692995
 40
0.1638122668137421
  0
CIRCLE
  8
_1-0_
  6
CONTINUOUS
 62
    7
 10
34.753730361526095
 20
94.254399892446159
 40
0.1638122668137421
  0
CIRCLE
  8
_1-0_
  6
CONTINUOUS
 62
    7
 10
31.188039006413646
 20
94.857039580474037
 40
0.1638122668137421
  0
CIRCLE
  8
_1-0_
  6
CONTINUOUS
 62
    7
 10
33.620471438846067
 20
94.625374046531888
 40
0.1638122668137421
  0
CIRCLE
  8
_1-0_
  6
CONTINUOUS
 62
    7
 10
29.334758036845443
 20
94.741206813502956
 40
0.1638122668137421
  0
CIRCLE
  8
_1-0_
  6
CONTINUOUS
 62
    7
 10
35.777416744747683
 20
94.936863667256134
 40
0.1638122668137421
  0
CIRCLE
  8
_1-0_
  6
CONTINUOUS
 62
    7
 10
31.870499688225834
 20
96.73379640321474
 40
0.1638122668137421
  0
CIRCLE
  8
_1-0_
  6
CONTINUOUS
 62
    7
 10
34.302932120658255
 20
96.502130869272605
 40
0.1638122668137421
  0
CIRCLE
  8
_1-0_
  6
CONTINUOUS
 62
    7
 10
30.017218718657631
 20
96.617963636243672
 40
0.1638122668137421
  0
CIRCLE
  8
_1-0_
  6
CONTINUOUS
 62
    7
 10
36.459877426559871
 20
96.813620489996836
 40
0.1638122668137421
  0
CIRCLE
  8
_1-0_
  6
CONTINUOUS
 62
    7
 10
34.259104342074011
 20
97.245638048326654
 40
0.1638122668137421
  0
CIRCLE
  8
_1-0_
  6
CONTINUOUS
 62
    7
 10
36.691536774506432
 20
97.013972514384506
 40
0.1638122668137421
  0
CIRCLE
  8
_1-0_
  6
CONTINUOUS
 62
    7
 10
32.405823372505807
 20
97.129805281355573
 40
0.1638122668137421
  0
CIRCLE
  8
_1-0_
  6
CONTINUOUS
 62
    7
 10
38.848482080408047
 20
97.325462135108751
 40
0.1638122668137421
  0
CIRCLE
  8
_1-0_
  6
CONTINUOUS
 62
    7
 10
38.353856060955991
 20
97.075028290619727
 40
0.1638122668137421
  0
CIRCLE
  8
_1-0_
  6
CONTINUOUS
 62
    7
 10
40.786288493388412
 20
96.843362756677578
 40
0.1638122668137421
  0
CIRCLE
  8
_1-0_
  6
CONTINUOUS
 62
    7
 10
36.500575091387759
 20
96.95919552364866
 40
0.1638122668137421
  0
CIRCLE
  8
_1-0_
  6
CONTINUOUS
 62
    7
 10
42.943233799289999
 20
97.154852377401824
 40
0.1638122668137421
  0
CIRCLE
  8
_1-0_
  6
CONTINUOUS
 62
    7
 10
41.254305452913854
 20
97.586869935731642
 40
0.1638122668137421
  0
CIRCLE
  8
_1-0_
  6
CONTINUOUS
 62
    7
 10
43.686737885346304
 20
97.355204401789493
 40
0.1638122668137421
  0
CIRCLE
  8
_1-0_
  6
CONTINUOUS
 62
    7
 10
39.401024483345651
 20
97.47103716876056
 40
0.1638122668137421
  0
CIRCLE
  8
_1-0_
  6
CONTINUOUS
 62
    7
 10
45.843683191247891
 20
97.666694022513724
 40
0.1638122668137421
  0
CIRCLE
  8
_1-0_
  6
CONTINUOUS
 62
    7
 10
44.15475175187396
 20
99.12240105706293
 40
0.1638122668137421
  0
CIRCLE
  8
_1-0_
  6
CONTINUOUS
 62
    7
 10
46.587184184306381
 20
98.890735523120782
 40
0.1638122668137421
  0
CIRCLE
  8
_1-0_
  6
CONTINUOUS
 62
    7
 10
42.301470782305728
 20
99.006568290091849
 40
0.1638122668137421
  0
CIRCLE
  8
_1-0_
  6
CONTINUOUS
 62
    7
 10
48.744129490207968
 20
99.202225143845027
 40
0.1638122668137421
  0
CIRCLE
  8
_1-0_
  6
CONTINUOUS
 62
    7
 10
45.860898816907735
 20
101.34039595320418
 40
0.1638122668137421
  0
CIRCLE
  8
_1-0_
  6
CONTINUOUS
 62
    7
 10
48.293331249340156
 20
101.10873041926205
 40
0.1638122668137421
  0
CIRCLE
  8
_1-0_
  6
CONTINUOUS
 62
    7
 10
44.007617847339532
 20
101.22456318623311
 40
0.1638122668137421
  0
CIRCLE
  8
_1-0_
  6
CONTINUOUS
 62
    7
 10
50.450276555241771
 20
101.42022003998628
 40
0.1638122668137421
  0
CIRCLE
  8
_1-0_
  6
CONTINUOUS
 62
    7
 10
47.56704588194151
 20
102.5346951871305
 40
0.1638122668137421
  0
CIRCLE
  8
_1-0_
  6
CONTINUOUS
 62
    7
 10
49.99947831437396
 20
102.30302965318835
 40
0.1638122668137421
  0
CIRCLE
  8
_1-0_
  6
CONTINUOUS
 62
    7
 10
45.713764912373307
 20
102.41886242015943
 40
0.1638122668137421
  0
CIRCLE
  8
_1-0_
  6
CONTINUOUS
 62
    7
 10
52.156423620275547
 20
102.61451927391259
 40
0.1638122668137421
  0
CIRCLE
  8
_1-0_
  6
CONTINUOUS
 62
    7
 10
50.979340012009089
 20
103.55838466334988
 40
0.1638122668137421
  0
CIRCLE
  8
_1-0_
  6
CONTINUOUS
 62
    7
 10
53.41177244444151
 20
103.32671912940773
 40
0.1638122668137421
  0
CIRCLE
  8
_1-0_
  6
CONTINUOUS
 62
    7
 10
49.126059042440886
 20
103.4425518963788
 40
0.1638122668137421
  0
CIRCLE
  8
_1-0_
  6
CONTINUOUS
 62
    7
 10
55.568717750343126
 20
103.63820875013198
 40
0.1638122668137421
  0
CIRCLE
  8
_1-0_
  6
CONTINUOUS
 62
    7
 10
54.562243899783567
 20
104.58207413956926
 40
0.1638122668137421
  0
CIRCLE
  8
_1-0_
  6
CONTINUOUS
 62
    7
 10
56.994676332216017
 20
104.35039623363599
 40
0.1638122668137421
  0
CIRCLE
  8
_1-0_
  6
CONTINUOUS
 62
    7
 10
52.708962930215364
 20
104.46623518660262
 40
0.1638122668137421
  0
CIRCLE
  8
_1-0_
  6
CONTINUOUS
 62
    7
 10
59.151621638117604
 20
104.66189822635135
 40
0.1638122668137421
  0
CIRCLE
  8
_1-0_
  6
CONTINUOUS
 62
    7
 10
56.950854739627317
 20
106.80005047772383
 40
0.1638122668137421
  0
CIRCLE
  8
_1-0_
  6
CONTINUOUS
 62
    7
 10
59.383287172059767
 20
106.56839731577281
 40
0.1638122668137421
  0
CIRCLE
  8
_1-0_
  6
CONTINUOUS
 62
    7
 10
55.097573770059114
 20
106.68422389674832
 40
0.1638122668137421
  0
CIRCLE
  8
_1-0_
  6
CONTINUOUS
 62
    7
 10
61.540232477961354
 20
106.87987456450591
 40
0.1638122668137421
  0
CIRCLE
  8
_1-0_
  6
CONTINUOUS
 62
    7
 10
61.216216216216225
 20
108.84744180215372
 40
0.1638122668137421
  0
CIRCLE
  8
_1-0_
  6
CONTINUOUS
 62
    7
 10
63.648648648648646
 20
108.61576389622044
 40
0.1638122668137421
  0
CIRCLE
  8
_1-0_
  6
CONTINUOUS
 62
    7
 10
59.362935246648021
 20
108.73160284918708
 40
0.1638122668137421
  0
CIRCLE
  8
_1-0_
  6
CONTINUOUS
 62
    7
 10
65.805593954550261
 20
108.92726588893582
 40
0.1638122668137421
  0
CIRCLE
  8
_1-0_
  6
CONTINUOUS
 62
    7
 10
64.969736047693203
 20
109.18866131756758
 40
0.1638122668137421
  0
CIRCLE
  8
_1-0_
  6
CONTINUOUS
 62
    7
 10
67.402168480125624
 20
108.95700815561656
 40
0.1638122668137421
  0
CIRCLE
  8
_1-0_
  6
CONTINUOUS
 62
    7
 10
63.116455078125
 20
109.07283473659207
 40
0.1638122668137421
  0
CIRCLE
  8
_1-0_
  6
CONTINUOUS
 62
    7
 10
69.55911378602724
 20
109.26848540434966
 40
0.1638122668137421
  0
CIRCLE
  8
_1-0_
  6
CONTINUOUS
 62
    7
 10
66.505267169024478
 20
110.21234460779139
 40
0.1638122668137421
  0
CIRCLE
  8
_1-0_
  6
CONTINUOUS
 62
    7
 10
68.937699601456927
 20
109.98069144584038
 40
0.1638122668137421
  0
CIRCLE
  8
_1-0_
  6
CONTINUOUS
 62
    7
 10
64.651986199456303
 20
110.09651802681589
 40
0.1638122668137421
  0
CIRCLE
  8
_1-0_
  6
CONTINUOUS
 62
    7
 10
71.094644907358543
 20
110.29216869457349
 40
0.1638122668137421
  0
CIRCLE
  8
_1-0_
  6
CONTINUOUS
 62
    7
 10
66.334657411317551
 20
109.35927107527451
 40
0.1638122668137421
  0
CIRCLE
  8
_1-0_
  6
CONTINUOUS
 62
    7
 10
68.76708984375
 20
109.12761791332349
 40
0.1638122668137421
  0
CIRCLE
  8
_1-0_
  6
CONTINUOUS
 62
    7
 10
64.481376441749376
 20
109.243444494299
 40
0.1638122668137421
  0
CIRCLE
  8
_1-0_
  6
CONTINUOUS
 62
    7
 10
70.924035149651615
 20
109.43909516205659
 40
0.1638122668137421
  0
CIRCLE
  8
_1-0_
  6
CONTINUOUS
 62
    7
 10
68.211414234058282
 20
111.06541814030828
 40
0.1638122668137421
  0
CIRCLE
  8
_1-0_
  6
CONTINUOUS
 62
    7
 10
70.643846666490731
 20
110.83376497835727
 40
0.1638122668137421
  0
CIRCLE
  8
_1-0_
  6
CONTINUOUS
 62
    7
 10
66.358133264490078
 20
110.94959155933277
 40
0.1638122668137421
  0
CIRCLE
  8
_1-0_
  6
CONTINUOUS
 62
    7
 10
72.800791972392318
 20
111.14524222709038
 40
0.1638122668137421
  0
CIRCLE
  8
_1-0_
  6
CONTINUOUS
 62
    7
 10
70.429402944203957
 20
112.60095544763514
 40
0.1638122668137421
  0
CIRCLE
  8
_1-0_
  6
CONTINUOUS
 62
    7
 10
72.861835376636407
 20
112.36930228568413
 40
0.1638122668137421
  0
CIRCLE
  8
_1-0_
  6
CONTINUOUS
 62
    7
 10
68.576121974635782
 20
112.48512886665964
 40
0.1638122668137421
  0
CIRCLE
  8
_1-0_
  6
CONTINUOUS
 62
    7
 10
75.018780682538022
 20
112.68077953441724
 40
0.1638122668137421
  0
CIRCLE
  8
_1-0_
  6
CONTINUOUS
 62
    7
 10
74.18292896167651
 20
115.67203006228885
 40
0.1638122668137421
  0
CIRCLE
  8
_1-0_
  6
CONTINUOUS
 62
    7
 10
76.615361394108959
 20
115.44035215635559
 40
0.1638122668137421
  0
CIRCLE
  8
_1-0_
  6
CONTINUOUS
 62
    7
 10
72.329647992108335
 20
115.55619110932221
 40
0.1638122668137421
  0
CIRCLE
  8
_1-0_
  6
CONTINUOUS
 62
    7
 10
78.772306700010574
 20
115.75185414907095
 40
0.1638122668137421
  0
CIRCLE
  8
_1-0_
  6
CONTINUOUS
 62
    7
 10
77.936448793153488
 20
115.33078580289275
 40
0.1638122668137421
  0
CIRCLE
  8
_1-0_
  6
CONTINUOUS
 62
    7
 10
80.368881225585938
 20
115.09913264094173
 40
0.1638122668137421
  0
CIRCLE
  8
_1-0_
  6
CONTINUOUS
 62
    7
 10
76.083167823585313
 20
115.21495922191724
 40
0.1638122668137421
  0
CIRCLE
  8
_1-0_
  6
CONTINUOUS
 62
    7
 10
82.525826531487553
 20
115.41060988967483
 40
0.1638122668137421
  0
CIRCLE
  8
_1-0_
  6
CONTINUOUS
 62
    7
 10
73.329855429159636
 20
113.11280946473818
 40
0.1638122668137421
  0
CIRCLE
  8
_1-0_
  6
CONTINUOUS
 62
    7
 10
75.762287861592085
 20
112.88113155880491
 40
0.1638122668137421
  0
CIRCLE
  8
_1-0_
  6
CONTINUOUS
 62
    7
 10
71.476574459591433
 20
112.99697051177154
 40
0.1638122668137421
  0
CIRCLE
  8
_1-0_
  6
CONTINUOUS
 62
    7
 10
77.919233167493672
 20
113.19263355152027
 40
0.1638122668137421
  0
CIRCLE
  8
_1-0_
  6
CONTINUOUS
 62
    7
 10
79.30136397078229
 20
114.98956628747889
 40
0.1638122668137421
  0
CIRCLE
  8
_1-0_
  6
CONTINUOUS
 62
    7
 10
81.73379640321474
 20
114.75788838154561
 40
0.1638122668137421
  0
CIRCLE
  8
_1-0_
  6
CONTINUOUS
 62
    7
 10
77.448083001214115
 20
114.87372733451225
 40
0.1638122668137421
  0
CIRCLE
  8
_1-0_
  6
CONTINUOUS
 62
    7
 10
83.890741709116341
 20
115.06939037426099
 40
0.1638122668137421
  0
CIRCLE
  8
_1-0_
  6
CONTINUOUS
 62
    7
 10
80.666285334406666
 20
116.35446909311656
 40
0.1638122668137421
  0
CIRCLE
  8
_1-0_
  6
CONTINUOUS
 62
    7
 10
83.098717766839115
 20
116.12281593116555
 40
0.1638122668137421
  0
CIRCLE
  8
_1-0_
  6
CONTINUOUS
 62
    7
 10
78.813004364838491
 20
116.23864251214106
 40
0.1638122668137421
  0
CIRCLE
  8
_1-0_
  6
CONTINUOUS
 62
    7
 10
85.255663072740717
 20
116.43429317989866
 40
0.1638122668137421
  0
CIRCLE
  8
_1-0_
  6
CONTINUOUS
 62
    7
 10
84.590414923590586
 20
118.74307993296031
 40
0.1638122668137421
  0
CIRCLE
  8
_1-0_
  6
CONTINUOUS
 62
    7
 10
87.022847356023021
 20
118.5114267710093
 40
0.1638122668137421
  0
CIRCLE
  8
_1-0_
  6
CONTINUOUS
 62
    7
 10
82.737133954022383
 20
118.62725335198481
 40
0.1638122668137421
  0
CIRCLE
  8
_1-0_
  6
CONTINUOUS
 62
    7
 10
89.179792661924623
 20
118.82290401974241
 40
0.1638122668137421
  0
CIRCLE
  8
_1-0_
  6
CONTINUOUS
 62
    7
 10
87.490867408546251
 20
118.91368969066724
 40
0.1638122668137421
  0
CIRCLE
  8
_1-0_
  6
CONTINUOUS
 62
    7
 10
89.923299840978686
 20
118.68203652871622
 40
0.1638122668137421
  0
CIRCLE
  8
_1-0_
  6
CONTINUOUS
 62
    7
 10
85.637586438978047
 20
118.79786310969173
 40
0.1638122668137421
  0
CIRCLE
  8
_1-0_
  6
CONTINUOUS
 62
    7
 10
92.080245146880287
 20
118.99351377744934
 40
0.1638122668137421
  0
CIRCLE
  8
_1-0_
  6
CONTINUOUS
 62
    7
 10
93.462382136164493
 20
121.30230053051099
 40
0.1638122668137421
  0
CIRCLE
  8
_1-0_
  6
CONTINUOUS
 62
    7
 10
95.894814568596928
 20
121.07064736855997
 40
0.1638122668137421
  0
CIRCLE
  8
_1-0_
  6
CONTINUOUS
 62
    7
 10
91.60910116659629
 20
121.18647394953548
 40
0.1638122668137421
  0
CIRCLE
  8
_1-0_
  6
CONTINUOUS
 62
    7
 10
98.051759874498529
 20
121.38212461729309
 40
0.1638122668137421
  0
CIRCLE
  8
_1-0_
  6
CONTINUOUS
 62
    7
 10
98.410207387563347
 20
124.54398490287163
 40
0.1638122668137421
  0
CIRCLE
  8
_1-0_
  6
CONTINUOUS
 62
    7
 10
100.84263981999578
 20
124.31230699693835
 40
0.1638122668137421
  0
CIRCLE
  8
_1-0_
  6
CONTINUOUS
 62
    7
 10
96.556926417995143
 20
124.42814594990499
 40
0.1638122668137421
  0
CIRCLE
  8
_1-0_
  6
CONTINUOUS
 62
    7
 10
102.99958512589738
 20
124.62380898965372
 40
0.1638122668137421
  0
CIRCLE
  8
_1-0_
  6
CONTINUOUS
 62
    7
 10
103.86986809807856
 20
126.76196124102619
 40
0.1638122668137421
  0
CIRCLE
  8
_1-0_
  6
CONTINUOUS
 62
    7
 10
106.30230053051099
 20
126.53030807907517
 40
0.1638122668137421
  0
CIRCLE
  8
_1-0_
  6
CONTINUOUS
 62
    7
 10
102.01659331450591
 20
126.64613466005068
 40
0.1638122668137421
  0
CIRCLE
  8
_1-0_
  6
CONTINUOUS
 62
    7
 10
108.45925820840372
 20
126.84178532780828
 40
0.1638122668137421
  0
CIRCLE
  8
_1-0_
  6
CONTINUOUS
 62
    7
 10
108.81769953547298
 20
128.46810830605997
 40
0.1638122668137421
  0
CIRCLE
  8
_1-0_
  6
CONTINUOUS
 62
    7
 10
111.25013196790542
 20
128.23645514410896
 40
0.1638122668137421
  0
CIRCLE
  8
_1-0_
  6
CONTINUOUS
 62
    7
 10
106.96442475190034
 20
128.35228172508445
 40
0.1638122668137421
  0
CIRCLE
  8
_1-0_
  6
CONTINUOUS
 62
    7
 10
113.40708964579815
 20
128.54793239284206
 40
0.1638122668137421
  0
CIRCLE
  8
_1-0_
  6
CONTINUOUS
 62
    7
 10
106.77030821104309
 20
128.80935256545609
 40
0.1638122668137421
  0
CIRCLE
  8
_1-0_
  6
CONTINUOUS
 62
    7
 10
109.20274064347551
 20
128.57767465952281
 40
0.1638122668137421
  0
CIRCLE
  8
_1-0_
  6
CONTINUOUS
 62
    7
 10
104.91703342747044
 20
128.69351361248945
 40
0.1638122668137421
  0
CIRCLE
  8
_1-0_
  6
CONTINUOUS
 62
    7
 10
111.35969832136826
 20
128.88917665223818
 40
0.1638122668137421
  0
CIRCLE
  8
_1-0_
  6
CONTINUOUS
 62
    7
 10
118.0308738914696
 20
134.09840351826438
 40
0.1638122668137421
  0
CIRCLE
  8
_1-0_
  6
CONTINUOUS
 62
    7
 10
120.46330632390203
 20
133.86672561233109
 40
0.1638122668137421
  0
CIRCLE
  8
_1-0_
  6
CONTINUOUS
 62
    7
 10
116.17759910789697
 20
133.98256456529774
 40
0.1638122668137421
  0
CIRCLE
  8
_1-0_
  6
CONTINUOUS
 62
    7
 10
122.62026400179477
 20
134.17822760504646
 40
0.1638122668137421
  0
CIRCLE
  8
_1-0_
  6
CONTINUOUS
 62
    7
 10
111.54752989073059
 20
132.39225645323057
 40
0.1638122668137421
  0
CIRCLE
  8
_1-0_
  6
CONTINUOUS
 62
    7
 10
113.97996232316301
 20
132.16057854729729
 40
0.1638122668137421
  0
CIRCLE
  8
_1-0_
  6
CONTINUOUS
 62
    7
 10
109.69425510715794
 20
132.27641750026393
 40
0.1638122668137421
  0
CIRCLE
  8
_1-0_
  6
CONTINUOUS
 62
    7
 10
116.13692000105576
 20
132.47208054001268
 40
0.1638122668137421
  0
CIRCLE
  8
_1-0_
  6
CONTINUOUS
 62
    7
 10
110.86506611592061
 20
131.19793866131758
 40
0.1638122668137421
  0
CIRCLE
  8
_1-0_
  6
CONTINUOUS
 62
    7
 10
113.29749854835305
 20
130.96628549936656
 40
0.1638122668137421
  0
CIRCLE
  8
_1-0_
  6
CONTINUOUS
 62
    7
 10
109.01179133234798
 20
131.08211208034206
 40
0.1638122668137421
  0
CIRCLE
  8
_1-0_
  6
CONTINUOUS
 62
    7
 10
115.45445622624578
 20
131.27776274809966
 40
0.1638122668137421
  0
CIRCLE
  8
_1-0_
  6
CONTINUOUS
 62
    7
 10
115.64228779560811
 20
132.22164669552365
 40
0.1638122668137421
  0
CIRCLE
  8
_1-0_
  6
CONTINUOUS
 62
    7
 10
118.07472022804055
 20
131.98996878959039
 40
0.1638122668137421
  0
CIRCLE
  8
_1-0_
  6
CONTINUOUS
 62
    7
 10
113.78900064004435
 20
132.105807742557
 40
0.1638122668137421
  0
CIRCLE
  8
_1-0_
  6
CONTINUOUS
 62
    7
 10
120.23165316195102
 20
132.30147078230576
 40
0.1638122668137421
  0
CIRCLE
  8
_1-0_
  6
CONTINUOUS
 62
    7
 10
119.73702095650339
 20
134.2690132759713
 40
0.1638122668137421
  0
CIRCLE
  8
_1-0_
  6
CONTINUOUS
 62
    7
 10
122.16945338893582
 20
134.03736011402029
 40
0.1638122668137421
  0
CIRCLE
  8
_1-0_
  6
CONTINUOUS
 62
    7
 10
117.88374617293076
 20
134.15318669499578
 40
0.1638122668137421
  0
CIRCLE
  8
_1-0_
  6
CONTINUOUS
 62
    7
 10
124.32641106682856
 20
134.34883736275339
 40
0.1638122668137421
  0
CIRCLE
  8
_1-0_
  6
CONTINUOUS
 62
    7
 10
124.68485239389781
 20
136.31637985641893
 40
0.1638122668137421
  0
CIRCLE
  8
_1-0_
  6
CONTINUOUS
 62
    7
 10
127.11728482633025
 20
136.08472669446792
 40
0.1638122668137421
  0
CIRCLE
  8
_1-0_
  6
CONTINUOUS
 62
    7
 10
122.83157761032517
 20
136.20055327544341
 40
0.1638122668137421
  0
CIRCLE
  8
_1-0_
  6
CONTINUOUS
 62
    7
 10
129.27424250422297
 20
136.39620394320102
 40
0.1638122668137421
  0
CIRCLE
  8
_1-0_
  6
CONTINUOUS
 62
    7
 10
126.90285347603464
 20
136.99884363122888
 40
0.1638122668137421
  0
CIRCLE
  8
_1-0_
  6
CONTINUOUS
 62
    7
 10
129.33528590846706
 20
136.76719046927789
 40
0.1638122668137421
  0
CIRCLE
  8
_1-0_
  6
CONTINUOUS
 62
    7
 10
125.04956632047087
 20
136.88301705025339
 40
0.1638122668137421
  0
CIRCLE
  8
_1-0_
  6
CONTINUOUS
 62
    7
 10
131.49221884237755
 20
137.07866771801099
 40
0.1638122668137421
  0
CIRCLE
  8
_1-0_
  6
CONTINUOUS
 62
    7
 10
126.39099945893159
 20
139.04621021167654
 40
0.1638122668137421
  0
CIRCLE
  8
_1-0_
  6
CONTINUOUS
 62
    7
 10
128.82343189136404
 20
138.81455704972552
 40
0.1638122668137421
  0
CIRCLE
  8
_1-0_
  6
CONTINUOUS
 62
    7
 10
124.53772467535896
 20
138.93038363070102
 40
0.1638122668137421
  0
CIRCLE
  8
_1-0_
  6
CONTINUOUS
 62
    7
 10
130.98038956925677
 20
139.12603429845862
 40
0.1638122668137421
  0
CIRCLE
  8
_1-0_
  6
CONTINUOUS
 62
    7
 10
130.31514760610222
 20
139.55806422877956
 40
0.1638122668137421
  0
CIRCLE
  8
_1-0_
  6
CONTINUOUS
 62
    7
 10
132.74758003853464
 20
139.32641106682854
 40
0.1638122668137421
  0
CIRCLE
  8
_1-0_
  6
CONTINUOUS
 62
    7
 10
128.46186045053844
 20
139.44223764780406
 40
0.1638122668137421
  0
CIRCLE
  8
_1-0_
  6
CONTINUOUS
 62
    7
 10
134.9045129724451
 20
139.63788831556167
 40
0.1638122668137421
  0
CIRCLE
  8
_1-0_
  6
CONTINUOUS
 62
    7
 10
133.04497796135979
 20
140.92299177839951
 40
0.1638122668137421
  0
CIRCLE
  8
_1-0_
  6
CONTINUOUS
 62
    7
 10
135.47741039379224
 20
140.69131387246622
 40
0.1638122668137421
  0
CIRCLE
  8
_1-0_
  6
CONTINUOUS
 62
    7
 10
131.19169080579604
 20
140.80715282543287
 40
0.1638122668137421
  0
CIRCLE
  8
_1-0_
  6
CONTINUOUS
 62
    7
 10
137.63434332770271
 20
141.00281586518159
 40
0.1638122668137421
  0
CIRCLE
  8
_1-0_
  6
CONTINUOUS
 62
    7
 10
134.58050289669552
 20
141.09360153610643
 40
0.1638122668137421
  0
CIRCLE
  8
_1-0_
  6
CONTINUOUS
 62
    7
 10
137.01293532912797
 20
140.86192363017315
 40
0.1638122668137421
  0
CIRCLE
  8
_1-0_
  6
CONTINUOUS
 62
    7
 10
132.72721574113177
 20
140.97776258313979
 40
0.1638122668137421
  0
CIRCLE
  8
_1-0_
  6
CONTINUOUS
 62
    7
 10
139.16988063502956
 20
141.17342562288852
 40
0.1638122668137421
  0
CIRCLE
  8
_1-0_
  6
CONTINUOUS
 62
    7
 10
137.48096775364232
 20
142.11728482633023
 40
0.1638122668137421
  0
CIRCLE
  8
_1-0_
  6
CONTINUOUS
 62
    7
 10
139.91340018607477
 20
141.88563166437922
 40
0.1638122668137421
  0
CIRCLE
  8
_1-0_
  6
CONTINUOUS
 62
    7
 10
135.62768059807854
 20
142.00145824535474
 40
0.1638122668137421
  0
CIRCLE
  8
_1-0_
  6
CONTINUOUS
 62
    7
 10
142.07034549197635
 20
142.19710891311234
 40
0.1638122668137421
  0
CIRCLE
  8
_1-0_
  6
CONTINUOUS
 62
    7
 10
140.040188351193
 20
142.79974860114021
 40
0.1638122668137421
  0
CIRCLE
  8
_1-0_
  6
CONTINUOUS
 62
    7
 10
142.47262078362542
 20
142.56809543918919
 40
0.1638122668137421
  0
CIRCLE
  8
_1-0_
  6
CONTINUOUS
 62
    7
 10
138.18690119562922
 20
142.68392202016472
 40
0.1638122668137421
  0
CIRCLE
  8
_1-0_
  6
CONTINUOUS
 62
    7
 10
144.62956608952703
 20
142.87957268792229
 40
0.1638122668137421
  0
CIRCLE
  8
_1-0_
  6
CONTINUOUS
 62
    7
 10
145.84106857712206
 20
147.06511626372466
 40
0.1638122668137421
  0
CIRCLE
  8
_1-0_
  6
CONTINUOUS
 62
    7
 10
148.27350100955448
 20
146.83343835779138
 40
0.1638122668137421
  0
CIRCLE
  8
_1-0_
  6
CONTINUOUS
 62
    7
 10
143.98778142155828
 20
146.94927731075802
 40
0.1638122668137421
  0
CIRCLE
  8
_1-0_
  6
CONTINUOUS
 62
    7
 10
150.43044631545609
 20
147.14494035050677
 40
0.1638122668137421
  0
CIRCLE
  8
_1-0_
  6
CONTINUOUS
 62
    7
 10
143.79370199667443
 20
146.04140822951859
 40
0.1638122668137421
  0
CIRCLE
  8
_1-0_
  6
CONTINUOUS
 62
    7
 10
146.22613442910685
 20
145.80975506756758
 40
0.1638122668137421
  0
CIRCLE
  8
_1-0_
  6
CONTINUOUS
 62
    7
 10
141.94041484111065
 20
145.92558164854307
 40
0.1638122668137421
  0
CIRCLE
  8
_1-0_
  6
CONTINUOUS
 62
    7
 10
148.38307973500847
 20
146.12123231630068
 40
0.1638122668137421
  0
CIRCLE
  8
_1-0_
  6
CONTINUOUS
 62
    7
 10
140.55201762431378
 20
144.67650542388091
 40
0.1638122668137421
  0
CIRCLE
  8
_1-0_
  6
CONTINUOUS
 62
    7
 10
142.9844500567462
 20
144.4448522619299
 40
0.1638122668137421
  0
CIRCLE
  8
_1-0_
  6
CONTINUOUS
 62
    7
 10
138.69873046875
 20
144.56067884290542
 40
0.1638122668137421
  0
CIRCLE
  8
_1-0_
  6
CONTINUOUS
 62
    7
 10
145.14139536264781
 20
144.75632951066302
 40
0.1638122668137421
  0
CIRCLE
  8
_1-0_
  6
CONTINUOUS
 62
    7
 10
148.57089893237966
 20
147.57694553684544
 40
0.1638122668137421
  0
CIRCLE
  8
_1-0_
  6
CONTINUOUS
 62
    7
 10
151.00333136481208
 20
147.34529237489443
 40
0.1638122668137421
  0
CIRCLE
  8
_1-0_
  6
CONTINUOUS
 62
    7
 10
146.71761177681589
 20
147.46111895586995
 40
0.1638122668137421
  0
CIRCLE
  8
_1-0_
  6
CONTINUOUS
 62
    7
 10
153.1602766707137
 20
147.65676962362755
 40
0.1638122668137421
  0
CIRCLE
  8
_1-0_
  6
CONTINUOUS
 62
    7
 10
151.30072928763727
 20
148.08879955394849
 40
0.1638122668137421
  0
CIRCLE
  8
_1-0_
  6
CONTINUOUS
 62
    7
 10
153.73316172006969
 20
147.85714639199747
 40
0.1638122668137421
  0
CIRCLE
  8
_1-0_
  6
CONTINUOUS
 62
    7
 10
149.44744213207349
 20
147.97297297297297
 40
0.1638122668137421
  0
CIRCLE
  8
_1-0_
  6
CONTINUOUS
 62
    7
 10
155.8901070259713
 20
148.16862364073057
 40
0.1638122668137421
  0
CIRCLE
  8
_1-0_
  6
CONTINUOUS
 62
    7
 10
153.85994988518794
 20
149.28309260187922
 40
0.1638122668137421
  0
CIRCLE
  8
_1-0_
  6
CONTINUOUS
 62
    7
 10
156.29238231762037
 20
149.05143943992823
 40
0.1638122668137421
  0
CIRCLE
  8
_1-0_
  6
CONTINUOUS
 62
    7
 10
152.00666272962417
 20
149.16726602090372
 40
0.1638122668137421
  0
CIRCLE
  8
_1-0_
  6
CONTINUOUS
 62
    7
 10
158.44932762352198
 20
149.36291668866133
 40
0.1638122668137421
  0
CIRCLE
  8
_1-0_
  6
CONTINUOUS
 62
    7
 10
156.76041474213471
 20
150.47741039379224
 40
0.1638122668137421
  0
CIRCLE
  8
_1-0_
  6
CONTINUOUS
 62
    7
 10
159.19284717456716
 20
150.24573248785896
 40
0.1638122668137421
  0
CIRCLE
  8
_1-0_
  6
CONTINUOUS
 62
    7
 10
154.90712758657097
 20
150.3615714408256
 40
0.1638122668137421
  0
CIRCLE
  8
_1-0_
  6
CONTINUOUS
 62
    7
 10
161.34979248046875
 20
150.55723448057432
 40
0.1638122668137421
  0
CIRCLE
  8
_1-0_
  6
CONTINUOUS
 62
    7
 10
159.83146461280617
 20
152.01292295713682
 40
0.1638122668137421
  0
CIRCLE
  8
_1-0_
  6
CONTINUOUS
 62
    7
 10
162.26389704523859
 20
151.78126979518581
 40
0.1638122668137421
  0
CIRCLE
  8
_1-0_
  6
CONTINUOUS
 62
    7
 10
157.9781774572424
 20
151.89709637616133
 40
0.1638122668137421
  0
CIRCLE
  8
_1-0_
  6
CONTINUOUS
 62
    7
 10
164.42084235114021
 20
152.09274704391893
 40
0.1638122668137421
  0
CIRCLE
  8
_1-0_
  6
CONTINUOUS
 62
    7
 10
163.24375874287375
 20
153.5484602644637
 40
0.1638122668137421
  0
CIRCLE
  8
_1-0_
  6
CONTINUOUS
 62
    7
 10
165.67619117530617
 20
153.31680710251268
 40
0.1638122668137421
  0
CIRCLE
  8
_1-0_
  6
CONTINUOUS
 62
    7
 10
161.39047158730997
 20
153.43263368348818
 40
0.1638122668137421
  0
CIRCLE
  8
_1-0_
  6
CONTINUOUS
 62
    7
 10
167.83313648120779
 20
153.62828435124578
 40
0.1638122668137421
  0
CIRCLE
  8
_1-0_
  6
CONTINUOUS
 62
    7
 10
164.94990580790753
 20
154.5721435546875
 40
0.1638122668137421
  0
CIRCLE
  8
_1-0_
  6
CONTINUOUS
 62
    7
 10
167.38233824033995
 20
154.34049039273648
 40
0.1638122668137421
  0
CIRCLE
  8
_1-0_
  6
CONTINUOUS
 62
    7
 10
163.09661865234375
 20
154.45631697371201
 40
0.1638122668137421
  0
CIRCLE
  8
_1-0_
  6
CONTINUOUS
 62
    7
 10
169.53928354624156
 20
154.65196764146961
 40
0.1638122668137421
  0
CIRCLE
  8
_1-0_
  6
CONTINUOUS
 62
    7
 10
168.19159018026818
 20
157.13136415223818
 40
0.1638122668137421
  0
CIRCLE
  8
_1-0_
  6
CONTINUOUS
 62
    7
 10
170.6240226127006
 20
156.89971099028716
 40
0.1638122668137421
  0
CIRCLE
  8
_1-0_
  6
CONTINUOUS
 62
    7
 10
166.3383030247044
 20
157.01553757126268
 40
0.1638122668137421
  0
CIRCLE
  8
_1-0_
  6
CONTINUOUS
 62
    7
 10
172.78096791860222
 20
157.21118823902029
 40
0.1638122668137421
  0
CIRCLE
  8
_1-0_
  6
CONTINUOUS
 62
    7
 10
171.26264005093961
 20
157.98443768475508
 40
0.1638122668137421
  0
CIRCLE
  8
_1-0_
  6
CONTINUOUS
 62
    7
 10
173.69507248337206
 20
157.75278452280406
 40
0.1638122668137421
  0
CIRCLE
  8
_1-0_
  6
CONTINUOUS
 62
    7
 10
169.40935289537586
 20
157.86861110377956
 40
0.1638122668137421
  0
CIRCLE
  8
_1-0_
  6
CONTINUOUS
 62
    7
 10
175.85201778927365
 20
158.06426177153716
 40
0.1638122668137421
  0
CIRCLE
  8
_1-0_
  6
CONTINUOUS
 62
    7
 10
175.69864221521328
 20
159.349365234375
 40
0.1638122668137421
  0
CIRCLE
  8
_1-0_
  6
CONTINUOUS
 62
    7
 10
178.1310746476457
 20
159.11771207242398
 40
0.1638122668137421
  0
CIRCLE
  8
_1-0_
  6
CONTINUOUS
 62
    7
 10
173.84535505964951
 20
159.23353865339951
 40
0.1638122668137421
  0
CIRCLE
  8
_1-0_
  6
CONTINUOUS
 62
    7
 10
180.28801995354732
 20
159.42918932115711
 40
0.1638122668137421
  0
CIRCLE
  8
_1-0_
  6
CONTINUOUS
 62
    7
 10
179.28154610298776
 20
161.0555122994088
 40
0.1638122668137421
  0
CIRCLE
  8
_1-0_
  6
CONTINUOUS
 62
    7
 10
181.71397853542018
 20
160.82383439347552
 40
0.1638122668137421
  0
CIRCLE
  8
_1-0_
  6
CONTINUOUS
 62
    7
 10
177.42825894742398
 20
160.93967334644216
 40
0.1638122668137421
  0
CIRCLE
  8
_1-0_
  6
CONTINUOUS
 62
    7
 10
183.8709238413218
 20
161.13533638619089
 40
0.1638122668137421
  0
CIRCLE
  8
_1-0_
  6
CONTINUOUS
 62
    7
 10
183.88813328098607
 20
163.27348863756336
 40
0.1638122668137421
  0
CIRCLE
  8
_1-0_
  6
CONTINUOUS
 62
    7
 10
186.32056571341852
 20
163.04183547561234
 40
0.1638122668137421
  0
CIRCLE
  8
_1-0_
  6
CONTINUOUS
 62
    7
 10
182.03484612542232
 20
163.15766205658784
 40
0.1638122668137421
  0
CIRCLE
  8
_1-0_
  6
CONTINUOUS
 62
    7
 10
188.4775110193201
 20
163.35331272434544
 40
0.1638122668137421
  0
CIRCLE
  8
_1-0_
  6
CONTINUOUS
 62
    7
 10
185.9354998614337
 20
164.63841618718328
 40
0.1638122668137421
  0
CIRCLE
  8
_1-0_
  6
CONTINUOUS
 62
    7
 10
188.36793229386615
 20
164.40676302523227
 40
0.1638122668137421
  0
CIRCLE
  8
_1-0_
  6
CONTINUOUS
 62
    7
 10
184.08221270586995
 20
164.52258960620779
 40
0.1638122668137421
  0
CIRCLE
  8
_1-0_
  6
CONTINUOUS
 62
    7
 10
190.52487759976773
 20
164.71824027396539
 40
0.1638122668137421
  0
CIRCLE
  8
_1-0_
  6
CONTINUOUS
 62
    7
 10
189.85964800860432
 20
165.66209947740711
 40
0.1638122668137421
  0
CIRCLE
  8
_1-0_
  6
CONTINUOUS
 62
    7
 10
192.29208044103675
 20
165.43044631545609
 40
0.1638122668137421
  0
CIRCLE
  8
_1-0_
  6
CONTINUOUS
 62
    7
 10
188.00636085304055
 20
165.54627289643159
 40
0.1638122668137421
  0
CIRCLE
  8
_1-0_
  6
CONTINUOUS
 62
    7
 10
194.44902574693836
 20
165.74192356418919
 40
0.1638122668137421
  0
CIRCLE
  8
_1-0_
  6
CONTINUOUS
 62
    7
 10
192.93069787927578
 20
167.88010055954393
 40
0.1638122668137421
  0
CIRCLE
  8
_1-0_
  6
CONTINUOUS
 62
    7
 10
195.3631303117082
 20
167.64842265361065
 40
0.1638122668137421
  0
CIRCLE
  8
_1-0_
  6
CONTINUOUS
 62
    7
 10
191.07741072371201
 20
167.76426160657729
 40
0.1638122668137421
  0
CIRCLE
  8
_1-0_
  6
CONTINUOUS
 62
    7
 10
197.52007561760982
 20
167.95992464632602
 40
0.1638122668137421
  0
CIRCLE
  8
_1-0_
  6
CONTINUOUS
 62
    7
 10
200.59895695866766
 20
168.31992484427789
 40
0.1638122668137421
  0
CIRCLE
  8
_1-0_
  6
CONTINUOUS
 62
    7
 10
203.04705233187289
 20
168.00060375316724
 40
0.1638122668137421
  0
CIRCLE
  8
_1-0_
  6
CONTINUOUS
 62
    7
 10
201.87621657912797
 20
168.21347623258023
 40
0.1638122668137421
  0
CIRCLE
  8
_1-0_
  6
CONTINUOUS
 62
    7
 10
201.45045924831084
 20
168.42634871199326
 40
0.1638122668137421
  0
CIRCLE
  8
_1-0_
  6
CONTINUOUS
 62
    7
 10
202.43658117345862
 20
167.33380291913008
 40
0.150517015843778
  0
CIRCLE
  8
_1-0_
  6
CONTINUOUS
 62
    7
 10
204.5522164009713
 20
167.0533917401288
 40
0.1638122668137421
  0
CIRCLE
  8
_1-0_
  6
CONTINUOUS
 62
    7
 10
205.82945127744932
 20
166.94694312843117
 40
0.1638122668137421
  0
CIRCLE
  8
_1-0_
  6
CONTINUOUS
 62
    7
 10
205.40370631862334
 20
167.15981560784419
 40
0.1638122668137421
  0
CIRCLE
  8
_1-0_
  6
CONTINUOUS
 62
    7
 10
206.37482101852831
 20
163.57088656038852
 40
0.1638122668137421
  0
CIRCLE
  8
_1-0_
  6
CONTINUOUS
 62
    7
 10
208.82292876372466
 20
163.25156546927789
 40
0.1638122668137421
  0
CIRCLE
  8
_1-0_
  6
CONTINUOUS
 62
    7
 10
207.65209301097974
 20
163.46443794869089
 40
0.1638122668137421
  0
CIRCLE
  8
_1-0_
  6
CONTINUOUS
 62
    7
 10
207.22632330817146
 20
163.67731042810391
 40
0.1638122668137421
  0
CIRCLE
  8
_1-0_
  6
CONTINUOUS
 62
    7
 10
208.21244523331927
 20
162.58476463524073
 40
0.150517015843778
  0
CIRCLE
  8
_1-0_
  6
CONTINUOUS
 62
    7
 10
210.32808046083193
 20
162.30435345623945
 40
0.1638122668137421
  0
CIRCLE
  8
_1-0_
  6
CONTINUOUS
 62
    7
 10
211.60531533730997
 20
162.19790484454182
 40
0.1638122668137421
  0
CIRCLE
  8
_1-0_
  6
CONTINUOUS
 62
    7
 10
211.17957037848396
 20
162.41077732395482
 40
0.1638122668137421
  0
CIRCLE
  8
_1-0_
  6
CONTINUOUS
 62
    7
 10
208.81352605046453
 20
161.51725975242823
 40
0.1638122668137421
  0
CIRCLE
  8
_1-0_
  6
CONTINUOUS
 62
    7
 10
211.2615966796875
 20
161.19793866131758
 40
0.1638122668137421
  0
CIRCLE
  8
_1-0_
  6
CONTINUOUS
 62
    7
 10
210.09076092694258
 20
161.41081114073057
 40
0.1638122668137421
  0
CIRCLE
  8
_1-0_
  6
CONTINUOUS
 62
    7
 10
209.66501596811656
 20
161.62368362014359
 40
0.1638122668137421
  0
CIRCLE
  8
_1-0_
  6
CONTINUOUS
 62
    7
 10
210.65113789326438
 20
160.53113782728042
 40
0.150517015843778
  0
CIRCLE
  8
_1-0_
  6
CONTINUOUS
 62
    7
 10
212.76677312077703
 20
160.25072664827914
 40
0.1638122668137421
  0
CIRCLE
  8
_1-0_
  6
CONTINUOUS
 62
    7
 10
214.04400799725508
 20
160.14427803658151
 40
0.1638122668137421
  0
CIRCLE
  8
_1-0_
  6
CONTINUOUS
 62
    7
 10
213.61826303842906
 20
160.35715051599453
 40
0.1638122668137421
  0
CIRCLE
  8
_1-0_
  6
CONTINUOUS
 62
    7
 10
210.48206226245779
 20
160.61879338444891
 40
0.1638122668137421
  0
CIRCLE
  8
_1-0_
  6
CONTINUOUS
 62
    7
 10
212.93018237964529
 20
160.29947229333828
 40
0.1638122668137421
  0
CIRCLE
  8
_1-0_
  6
CONTINUOUS
 62
    7
 10
211.75934662690034
 20
160.51234477275128
 40
0.1638122668137421
  0
CIRCLE
  8
_1-0_
  6
CONTINUOUS
 62
    7
 10
211.33357692409209
 20
160.72521725216427
 40
0.1638122668137421
  0
CIRCLE
  8
_1-0_
  6
CONTINUOUS
 62
    7
 10
212.31969884923987
 20
159.63267145930109
 40
0.150517015843778
  0
CIRCLE
  8
_1-0_
  6
CONTINUOUS
 62
    7
 10
214.43533407675255
 20
159.35226028029984
 40
0.1638122668137421
  0
CIRCLE
  8
_1-0_
  6
CONTINUOUS
 62
    7
 10
215.71256895323057
 20
159.24581166860222
 40
0.1638122668137421
  0
CIRCLE
  8
_1-0_
  6
CONTINUOUS
 62
    7
 10
215.28682399440459
 20
159.45868414801521
 40
0.1638122668137421
  0
CIRCLE
  8
_1-0_
  6
CONTINUOUS
 62
    7
 10
213.04915144636826
 20
159.33526116448482
 40
0.1638122668137421
  0
CIRCLE
  8
_1-0_
  6
CONTINUOUS
 62
    7
 10
215.49722207559122
 20
159.01594007337417
 40
0.1638122668137421
  0
CIRCLE
  8
_1-0_
  6
CONTINUOUS
 62
    7
 10
214.3263863228463
 20
159.22881255278716
 40
0.1638122668137421
  0
CIRCLE
  8
_1-0_
  6
CONTINUOUS
 62
    7
 10
213.90064136402029
 20
159.44168503220018
 40
0.1638122668137421
  0
CIRCLE
  8
_1-0_
  6
CONTINUOUS
 62
    7
 10
214.88676328916807
 20
158.34913923933701
 40
0.150517015843778
  0
CIRCLE
  8
_1-0_
  6
CONTINUOUS
 62
    7
 10
217.00239851668076
 20
158.06872806033573
 40
0.1638122668137421
  0
CIRCLE
  8
_1-0_
  6
CONTINUOUS
 62
    7
 10
218.2796333931588
 20
157.9622794486381
 40
0.1638122668137421
  0
CIRCLE
  8
_1-0_
  6
CONTINUOUS
 62
    7
 10
217.85388843433279
 20
158.17515192805109
 40
0.1638122668137421
  0
CIRCLE
  8
_1-0_
  6
CONTINUOUS
 62
    7
 10
218.18323083826016
 20
158.05174131651182
 40
0.1638122668137421
  0
CIRCLE
  8
_1-0_
  6
CONTINUOUS
 62
    7
 10
220.63130146748313
 20
157.7324202254012
 40
0.1638122668137421
  0
CIRCLE
  8
_1-0_
  6
CONTINUOUS
 62
    7
 10
219.46046571473818
 20
157.94529270481419
 40
0.1638122668137421
  0
CIRCLE
  8
_1-0_
  6
CONTINUOUS
 62
    7
 10
219.03472075591216
 20
158.15816518422722
 40
0.1638122668137421
  0
CIRCLE
  8
_1-0_
  6
CONTINUOUS
 62
    7
 10
220.02084268105997
 20
157.06561939136404
 40
0.150517015843778
  0
CIRCLE
  8
_1-0_
  6
CONTINUOUS
 62
    7
 10
222.13647790857266
 20
156.78520821236276
 40
0.1638122668137421
  0
CIRCLE
  8
_1-0_
  6
CONTINUOUS
 62
    7
 10
223.41371278505068
 20
156.67875960066513
 40
0.1638122668137421
  0
CIRCLE
  8
_1-0_
  6
CONTINUOUS
 62
    7
 10
222.98796782622466
 20
156.89163208007812
 40
0.1638122668137421
  0
CIRCLE
  8
_1-0_
  6
CONTINUOUS
 62
    7
 10
222.29048445418076
 20
155.61304865656672
 40
0.1638122668137421
  0
CIRCLE
  8
_1-0_
  6
CONTINUOUS
 62
    7
 10
224.73860457136826
 20
155.29372756545609
 40
0.1638122668137421
  0
CIRCLE
  8
_1-0_
  6
CONTINUOUS
 62
    7
 10
223.56776881862334
 20
155.50660004486909
 40
0.1638122668137421
  0
CIRCLE
  8
_1-0_
  6
CONTINUOUS
 62
    7
 10
223.14199911581505
 20
155.71947252428211
 40
0.1638122668137421
  0
CIRCLE
  8
_1-0_
  6
CONTINUOUS
 62
    7
 10
224.12812104096284
 20
154.62692673141893
 40
0.150517015843778
  0
CIRCLE
  8
_1-0_
  6
CONTINUOUS
 62
    7
 10
226.24375626847552
 20
154.34651555241766
 40
0.1638122668137421
  0
CIRCLE
  8
_1-0_
  6
CONTINUOUS
 62
    7
 10
227.52099114495357
 20
154.24006694072003
 40
0.1638122668137421
  0
CIRCLE
  8
_1-0_
  6
CONTINUOUS
 62
    7
 10
227.09524618612755
 20
154.45293942013302
 40
0.1638122668137421
  0
CIRCLE
  8
_1-0_
  6
CONTINUOUS
 62
    7
 10
226.52610985008448
 20
154.45787584459461
 40
0.1638122668137421
  0
CIRCLE
  8
_1-0_
  6
CONTINUOUS
 62
    7
 10
228.97422996727198
 20
154.13855475348396
 40
0.1638122668137421
  0
CIRCLE
  8
_1-0_
  6
CONTINUOUS
 62
    7
 10
227.80339421452703
 20
154.35142723289698
 40
0.1638122668137421
  0
CIRCLE
  8
_1-0_
  6
CONTINUOUS
 62
    7
 10
227.37762451171875
 20
154.56429971230997
 40
0.1638122668137421
  0
CIRCLE
  8
_1-0_
  6
CONTINUOUS
 62
    7
 10
228.36374643686656
 20
153.4717539194468
 40
0.150517015843778
  0
CIRCLE
  8
_1-0_
  6
CONTINUOUS
 62
    7
 10
230.47938166437925
 20
153.19134274044552
 40
0.1638122668137421
  0
CIRCLE
  8
_1-0_
  6
CONTINUOUS
 62
    7
 10
231.75661654085727
 20
153.08489412874789
 40
0.1638122668137421
  0
CIRCLE
  8
_1-0_
  6
CONTINUOUS
 62
    7
 10
231.33087158203125
 20
153.29776660816091
 40
0.1638122668137421
  0
CIRCLE
  8
_1-0_
  6
CONTINUOUS
 62
    7
 10
246.99363914695948
 20
146.51725975242823
 40
0.1638122668137421
  0
CIRCLE
  8
_1-0_
  6
CONTINUOUS
 62
    7
 10
249.44170977618245
 20
146.19793866131758
 40
0.1638122668137421
  0
CIRCLE
  8
_1-0_
  6
CONTINUOUS
 62
    7
 10
248.2708740234375
 20
146.41081114073057
 40
0.1638122668137421
  0
CIRCLE
  8
_1-0_
  6
CONTINUOUS
 62
    7
 10
247.84512906461151
 20
146.62368362014359
 40
0.1638122668137421
  0
CIRCLE
  8
_1-0_
  6
CONTINUOUS
 62
    7
 10
248.8312509897593
 20
145.53113782728042
 40
0.150517015843778
  0
CIRCLE
  8
_1-0_
  6
CONTINUOUS
 62
    7
 10
250.94688621727198
 20
145.25072664827914
 40
0.1638122668137421
  0
CIRCLE
  8
_1-0_
  6
CONTINUOUS
 62
    7
 10
252.22412109375
 20
145.14427803658151
 40
0.1638122668137421
  0
CIRCLE
  8
_1-0_
  6
CONTINUOUS
 62
    7
 10
251.79837613492401
 20
145.3571505159945
 40
0.1638122668137421
  0
CIRCLE
  8
_1-0_
  6
CONTINUOUS
 62
    7
 10
240.68555677259292
 20
148.34863611169763
 40
0.1638122668137421
  0
CIRCLE
  8
_1-0_
  6
CONTINUOUS
 62
    7
 10
243.13367688978042
 20
148.02931502058701
 40
0.1638122668137421
  0
CIRCLE
  8
_1-0_
  6
CONTINUOUS
 62
    7
 10
241.9628411370355
 20
148.2421875
 40
0.1638122668137421
  0
CIRCLE
  8
_1-0_
  6
CONTINUOUS
 62
    7
 10
241.53707143422722
 20
148.45505997941302
 40
0.1638122668137421
  0
CIRCLE
  8
_1-0_
  6
CONTINUOUS
 62
    7
 10
242.523193359375
 20
147.36251418654984
 40
0.150517015843778
  0
CIRCLE
  8
_1-0_
  6
CONTINUOUS
 62
    7
 10
244.63882858688768
 20
147.08210300754857
 40
0.1638122668137421
  0
CIRCLE
  8
_1-0_
  6
CONTINUOUS
 62
    7
 10
245.91606346336573
 20
146.97565439585094
 40
0.1638122668137421
  0
CIRCLE
  8
_1-0_
  6
CONTINUOUS
 62
    7
 10
245.49031850453972
 20
147.18852687526393
 40
0.1638122668137421
  0
CIRCLE
  8
_1-0_
  6
CONTINUOUS
 62
    7
 10
234.98795792863177
 20
150.38348223711995
 40
0.1638122668137421
  0
CIRCLE
  8
_1-0_
  6
CONTINUOUS
 62
    7
 10
237.43607804581927
 20
150.0641611460093
 40
0.1638122668137421
  0
CIRCLE
  8
_1-0_
  6
CONTINUOUS
 62
    7
 10
236.26524229307435
 20
150.27703362542232
 40
0.1638122668137421
  0
CIRCLE
  8
_1-0_
  6
CONTINUOUS
 62
    7
 10
235.83947259026607
 20
150.48990610483531
 40
0.1638122668137421
  0
CIRCLE
  8
_1-0_
  6
CONTINUOUS
 62
    7
 10
236.82559451541385
 20
149.39736031197214
 40
0.150517015843778
  0
CIRCLE
  8
_1-0_
  6
CONTINUOUS
 62
    7
 10
238.94122974292654
 20
149.11694913297086
 40
0.1638122668137421
  0
CIRCLE
  8
_1-0_
  6
CONTINUOUS
 62
    7
 10
240.21846461940459
 20
149.01050052127323
 40
0.1638122668137421
  0
CIRCLE
  8
_1-0_
  6
CONTINUOUS
 62
    7
 10
239.79271966057857
 20
149.22337300068625
 40
0.1638122668137421
  0
CIRCLE
  8
_1-0_
  6
CONTINUOUS
 62
    7
 10
231.32525469805745
 20
151.40090529983109
 40
0.1638122668137421
  0
CIRCLE
  8
_1-0_
  6
CONTINUOUS
 62
    7
 10
233.77332532728042
 20
151.08158420872044
 40
0.1638122668137421
  0
CIRCLE
  8
_1-0_
  6
CONTINUOUS
 62
    7
 10
232.6024895745355
 20
151.29445668813347
 40
0.1638122668137421
  0
CIRCLE
  8
_1-0_
  6
CONTINUOUS
 62
    7
 10
232.17674461570948
 20
151.50732916754646
 40
0.1638122668137421
  0
CIRCLE
  8
_1-0_
  6
CONTINUOUS
 62
    7
 10
233.16286654085727
 20
150.41478337468328
 40
0.150517015843778
  0
CIRCLE
  8
_1-0_
  6
CONTINUOUS
 62
    7
 10
235.27850176836995
 20
150.134372195682
 40
0.1638122668137421
  0
CIRCLE
  8
_1-0_
  6
CONTINUOUS
 62
    7
 10
236.555736644848
 20
150.02792358398437
 40
0.1638122668137421
  0
CIRCLE
  8
_1-0_
  6
CONTINUOUS
 62
    7
 10
236.12999168602198
 20
150.2407960633974
 40
0.1638122668137421
  0
CIRCLE
  8
_1-0_
  6
CONTINUOUS
 62
    7
 10
251.47027093010982
 20
142.85453177787164
 40
0.1638122668137421
  0
CIRCLE
  8
_1-0_
  6
CONTINUOUS
 62
    7
 10
253.91839104729732
 20
142.53521068676099
 40
0.1638122668137421
  0
CIRCLE
  8
_1-0_
  6
CONTINUOUS
 62
    7
 10
252.74755529455237
 20
142.74808316617398
 40
0.1638122668137421
  0
CIRCLE
  8
_1-0_
  6
CONTINUOUS
 62
    7
 10
252.32178559174409
 20
142.96095564558701
 40
0.1638122668137421
  0
CIRCLE
  8
_1-0_
  6
CONTINUOUS
 62
    7
 10
253.3079075168919
 20
141.86840985272383
 40
0.150517015843778
  0
CIRCLE
  8
_1-0_
  6
CONTINUOUS
 62
    7
 10
255.42354274440459
 20
141.58799867372255
 40
0.1638122668137421
  0
CIRCLE
  8
_1-0_
  6
CONTINUOUS
 62
    7
 10
256.7007776208826
 20
141.48155006202492
 40
0.1638122668137421
  0
CIRCLE
  8
_1-0_
  6
CONTINUOUS
 62
    7
 10
256.27503266205662
 20
141.69442254143792
 40
0.1638122668137421
  0
CIRCLE
  8
_1-0_
  6
CONTINUOUS
 62
    7
 10
255.94695220122469
 20
141.22664992873734
 40
0.1638122668137421
  0
CIRCLE
  8
_1-0_
  6
CONTINUOUS
 62
    7
 10
258.39507231841219
 20
140.90732883762669
 40
0.1638122668137421
  0
CIRCLE
  8
_1-0_
  6
CONTINUOUS
 62
    7
 10
257.22423656566724
 20
141.12020131703972
 40
0.1638122668137421
  0
CIRCLE
  8
_1-0_
  6
CONTINUOUS
 62
    7
 10
256.79846686285896
 20
141.33307379645271
 40
0.1638122668137421
  0
CIRCLE
  8
_1-0_
  6
CONTINUOUS
 62
    7
 10
257.78458878800677
 20
140.24052800358953
 40
0.150517015843778
  0
CIRCLE
  8
_1-0_
  6
CONTINUOUS
 62
    7
 10
259.90022401551943
 20
139.96011682458825
 40
0.1638122668137421
  0
CIRCLE
  8
_1-0_
  6
CONTINUOUS
 62
    7
 10
261.1774588919975
 20
139.85366821289062
 40
0.1638122668137421
  0
CIRCLE
  8
_1-0_
  6
CONTINUOUS
 62
    7
 10
260.75171393317146
 20
140.06654069230365
 40
0.1638122668137421
  0
CIRCLE
  8
_1-0_
  6
CONTINUOUS
 62
    7
 10
259.40621040962839
 20
139.59875570761193
 40
0.1638122668137421
  0
CIRCLE
  8
_1-0_
  6
CONTINUOUS
 62
    7
 10
261.85433052681589
 20
139.27943461650128
 40
0.1638122668137421
  0
CIRCLE
  8
_1-0_
  6
CONTINUOUS
 62
    7
 10
260.68349477407094
 20
139.49230709591427
 40
0.1638122668137421
  0
CIRCLE
  8
_1-0_
  6
CONTINUOUS
 62
    7
 10
260.25772507126266
 20
139.70517957532729
 40
0.1638122668137421
  0
CIRCLE
  8
_1-0_
  6
CONTINUOUS
 62
    7
 10
261.24384699641047
 20
138.61263378246412
 40
0.150517015843778
  0
CIRCLE
  8
_1-0_
  6
CONTINUOUS
 62
    7
 10
263.35948222392318
 20
138.33222260346284
 40
0.1638122668137421
  0
CIRCLE
  8
_1-0_
  6
CONTINUOUS
 62
    7
 10
264.6367171004012
 20
138.22577399176521
 40
0.1638122668137421
  0
CIRCLE
  8
_1-0_
  6
CONTINUOUS
 62
    7
 10
264.21097214157521
 20
138.43864647117823
 40
0.1638122668137421
  0
CIRCLE
  8
_1-0_
  6
CONTINUOUS
 62
    7
 10
263.88289168074328
 20
136.74996865762247
 40
0.1638122668137421
  0
CIRCLE
  8
_1-0_
  6
CONTINUOUS
 62
    7
 10
266.33101179793078
 20
136.43064756651182
 40
0.1638122668137421
  0
CIRCLE
  8
_1-0_
  6
CONTINUOUS
 62
    7
 10
265.16017604518584
 20
136.64352004592484
 40
0.1638122668137421
  0
CIRCLE
  8
_1-0_
  6
CONTINUOUS
 62
    7
 10
264.73440634237755
 20
136.85639252533784
 40
0.1638122668137421
  0
CIRCLE
  8
_1-0_
  6
CONTINUOUS
 62
    7
 10
265.72052826752537
 20
135.76384673247466
 40
0.150517015843778
  0
CIRCLE
  8
_1-0_
  6
CONTINUOUS
 62
    7
 10
267.83616349503802
 20
135.48343555347341
 40
0.1638122668137421
  0
CIRCLE
  8
_1-0_
  6
CONTINUOUS
 62
    7
 10
269.11339837151604
 20
135.37698694177575
 40
0.1638122668137421
  0
CIRCLE
  8
_1-0_
  6
CONTINUOUS
 62
    7
 10
268.68765341269005
 20
135.58985942118878
 40
0.1638122668137421
  0
CIRCLE
  8
_1-0_
  6
CONTINUOUS
 62
    7
 10
266.52822133657094
 20
134.71511016020904
 40
0.1638122668137421
  0
CIRCLE
  8
_1-0_
  6
CONTINUOUS
 62
    7
 10
268.97629196579396
 20
134.39578906909841
 40
0.1638122668137421
  0
CIRCLE
  8
_1-0_
  6
CONTINUOUS
 62
    7
 10
267.80545621304901
 20
134.60866154851141
 40
0.1638122668137421
  0
CIRCLE
  8
_1-0_
  6
CONTINUOUS
 62
    7
 10
267.37971125422297
 20
134.82153402792443
 40
0.1638122668137421
  0
CIRCLE
  8
_1-0_
  6
CONTINUOUS
 62
    7
 10
268.36583317937078
 20
133.72898823506125
 40
0.150517015843778
  0
CIRCLE
  8
_1-0_
  6
CONTINUOUS
 62
    7
 10
270.48146840688344
 20
133.44857705605997
 40
0.1638122668137421
  0
CIRCLE
  8
_1-0_
  6
CONTINUOUS
 62
    7
 10
271.75870328336151
 20
133.34212844436234
 40
0.1638122668137421
  0
CIRCLE
  8
_1-0_
  6
CONTINUOUS
 62
    7
 10
271.33295832453547
 20
133.55500092377534
 40
0.1638122668137421
  0
CIRCLE
  8
_1-0_
  6
CONTINUOUS
 62
    7
 10
263.4759521484375
 20
140.8196732804582
 40
0.1638122668137421
  0
CIRCLE
  8
_1-0_
  6
CONTINUOUS
 62
    7
 10
265.92402277766047
 20
140.50035218934755
 40
0.1638122668137421
  0
CIRCLE
  8
_1-0_
  6
CONTINUOUS
 62
    7
 10
264.75318702491558
 20
140.71322466876057
 40
0.1638122668137421
  0
CIRCLE
  8
_1-0_
  6
CONTINUOUS
 62
    7
 10
264.32744206608953
 20
140.92609714817357
 40
0.1638122668137421
  0
CIRCLE
  8
_1-0_
  6
CONTINUOUS
 62
    7
 10
265.31356399123734
 20
139.83355135531039
 40
0.150517015843778
  0
CIRCLE
  8
_1-0_
  6
CONTINUOUS
 62
    7
 10
267.42919921875
 20
139.55314017630914
 40
0.1638122668137421
  0
CIRCLE
  8
_1-0_
  6
CONTINUOUS
 62
    7
 10
268.70643409522808
 20
139.44669156461148
 40
0.1638122668137421
  0
CIRCLE
  8
_1-0_
  6
CONTINUOUS
 62
    7
 10
268.28068913640203
 20
139.65956404402451
 40
0.1638122668137421
  0
CIRCLE
  8
_1-0_
  6
CONTINUOUS
 62
    7
 10
256.76093024176521
 20
143.26149605415964
 40
0.1638122668137421
  0
CIRCLE
  8
_1-0_
  6
CONTINUOUS
 62
    7
 10
259.20900087098818
 20
142.94217496304898
 40
0.1638122668137421
  0
CIRCLE
  8
_1-0_
  6
CONTINUOUS
 62
    7
 10
258.03816511824328
 20
143.15504744246201
 40
0.1638122668137421
  0
CIRCLE
  8
_1-0_
  6
CONTINUOUS
 62
    7
 10
257.61242015941724
 20
143.367919921875
 40
0.1638122668137421
  0
CIRCLE
  8
_1-0_
  6
CONTINUOUS
 62
    7
 10
258.59854208456505
 20
142.27537412901182
 40
0.150517015843778
  0
CIRCLE
  8
_1-0_
  6
CONTINUOUS
 62
    7
 10
260.71417731207771
 20
141.99496295001057
 40
0.1638122668137421
  0
CIRCLE
  8
_1-0_
  6
CONTINUOUS
 62
    7
 10
261.99141218855578
 20
141.88851433831292
 40
0.1638122668137421
  0
CIRCLE
  8
_1-0_
  6
CONTINUOUS
 62
    7
 10
261.56566722972974
 20
142.10138681772594
 40
0.1638122668137421
  0
CIRCLE
  8
_1-0_
  6
CONTINUOUS
 62
    7
 10
267.34214988914698
 20
136.74996865762247
 40
0.1638122668137421
  0
CIRCLE
  8
_1-0_
  6
CONTINUOUS
 62
    7
 10
269.79027000633448
 20
136.43064756651182
 40
0.1638122668137421
  0
CIRCLE
  8
_1-0_
  6
CONTINUOUS
 62
    7
 10
268.61943425358953
 20
136.64352004592484
 40
0.1638122668137421
  0
CIRCLE
  8
_1-0_
  6
CONTINUOUS
 62
    7
 10
268.19366455078125
 20
136.85639252533784
 40
0.1638122668137421
  0
CIRCLE
  8
_1-0_
  6
CONTINUOUS
 62
    7
 10
269.17978647592906
 20
135.76384673247466
 40
0.150517015843778
  0
CIRCLE
  8
_1-0_
  6
CONTINUOUS
 62
    7
 10
271.29542170344172
 20
135.48343555347341
 40
0.1638122668137421
  0
CIRCLE
  8
_1-0_
  6
CONTINUOUS
 62
    7
 10
272.57265657991979
 20
135.37698694177575
 40
0.1638122668137421
  0
CIRCLE
  8
_1-0_
  6
CONTINUOUS
 62
    7
 10
272.14691162109375
 20
135.58985942118878
 40
0.1638122668137421
  0
CIRCLE
  8
_1-0_
  6
CONTINUOUS
 62
    7
 10
274.66760583826016
 20
132.88374617293076
 40
0.1638122668137421
  0
CIRCLE
  8
_1-0_
  6
CONTINUOUS
 62
    7
 10
277.11572595544766
 20
132.5644250818201
 40
0.1638122668137421
  0
CIRCLE
  8
_1-0_
  6
CONTINUOUS
 62
    7
 10
275.94489020270271
 20
132.77729756123313
 40
0.1638122668137421
  0
CIRCLE
  8
_1-0_
  6
CONTINUOUS
 62
    7
 10
275.51912049989443
 20
132.99017004064612
 40
0.1638122668137421
  0
CIRCLE
  8
_1-0_
  6
CONTINUOUS
 62
    7
 10
276.50524242504224
 20
131.89762424778294
 40
0.150517015843778
  0
CIRCLE
  8
_1-0_
  6
CONTINUOUS
 62
    7
 10
278.6208776525549
 20
131.61721306878167
 40
0.1638122668137421
  0
CIRCLE
  8
_1-0_
  6
CONTINUOUS
 62
    7
 10
279.89811252903297
 20
131.51076445708404
 40
0.1638122668137421
  0
CIRCLE
  8
_1-0_
  6
CONTINUOUS
 62
    7
 10
279.47236757020693
 20
131.72363693649706
 40
0.1638122668137421
  0
CIRCLE
  8
_1-0_
  6
CONTINUOUS
 62
    7
 10
279.75477063978042
 20
130.44192339922932
 40
0.1638122668137421
  0
CIRCLE
  8
_1-0_
  6
CONTINUOUS
 62
    7
 10
282.20284126900339
 20
130.12260230811867
 40
0.1638122668137421
  0
CIRCLE
  8
_1-0_
  6
CONTINUOUS
 62
    7
 10
281.03200551625844
 20
130.33547478753167
 40
0.1638122668137421
  0
CIRCLE
  8
_1-0_
  6
CONTINUOUS
 62
    7
 10
280.60626055743245
 20
130.54834726694469
 40
0.1638122668137421
  0
CIRCLE
  8
_1-0_
  6
CONTINUOUS
 62
    7
 10
281.59238248258026
 20
129.45580147408151
 40
0.150517015843778
  0
CIRCLE
  8
_1-0_
  6
CONTINUOUS
 62
    7
 10
283.70801771009292
 20
129.17539029508023
 40
0.1638122668137421
  0
CIRCLE
  8
_1-0_
  6
CONTINUOUS
 62
    7
 10
284.98525258657094
 20
129.0689416833826
 40
0.1638122668137421
  0
CIRCLE
  8
_1-0_
  6
CONTINUOUS
 62
    7
 10
284.55950762774495
 20
129.28181416279563
 40
0.1638122668137421
  0
CIRCLE
  8
_1-0_
  6
CONTINUOUS
 62
    7
 10
283.6209683804899
 20
129.42448796452703
 40
0.1638122668137421
  0
CIRCLE
  8
_1-0_
  6
CONTINUOUS
 62
    7
 10
286.0690884976774
 20
129.10516687341638
 40
0.1638122668137421
  0
CIRCLE
  8
_1-0_
  6
CONTINUOUS
 62
    7
 10
284.89825274493245
 20
129.3180393528294
 40
0.1638122668137421
  0
CIRCLE
  8
_1-0_
  6
CONTINUOUS
 62
    7
 10
284.47248304212417
 20
129.5309118322424
 40
0.1638122668137421
  0
CIRCLE
  8
_1-0_
  6
CONTINUOUS
 62
    7
 10
285.45860496727198
 20
128.43836603937922
 40
0.150517015843778
  0
CIRCLE
  8
_1-0_
  6
CONTINUOUS
 62
    7
 10
287.57424019478464
 20
128.15795486037797
 40
0.1638122668137421
  0
CIRCLE
  8
_1-0_
  6
CONTINUOUS
 62
    7
 10
288.85147507126271
 20
128.05150624868034
 40
0.1638122668137421
  0
CIRCLE
  8
_1-0_
  6
CONTINUOUS
 62
    7
 10
288.42573011243667
 20
128.26437872809333
 40
0.1638122668137421
  0
CIRCLE
  8
_1-0_
  6
CONTINUOUS
 62
    7
 10
290.53948479729729
 20
125.55826547983531
 40
0.1638122668137421
  0
CIRCLE
  8
_1-0_
  6
CONTINUOUS
 62
    7
 10
292.98755542652026
 20
125.23894438872468
 40
0.1638122668137421
  0
CIRCLE
  8
_1-0_
  6
CONTINUOUS
 62
    7
 10
291.81671967377537
 20
125.45181686813767
 40
0.1638122668137421
  0
CIRCLE
  8
_1-0_
  6
CONTINUOUS
 62
    7
 10
291.39097471494932
 20
125.66468934755068
 40
0.1638122668137421
  0
CIRCLE
  8
_1-0_
  6
CONTINUOUS
 62
    7
 10
292.37709664009714
 20
124.5721435546875
 40
0.150517015843778
  0
CIRCLE
  8
_1-0_
  6
CONTINUOUS
 62
    7
 10
294.49273186760979
 20
124.29173237568624
 40
0.1638122668137421
  0
CIRCLE
  8
_1-0_
  6
CONTINUOUS
 62
    7
 10
295.76996674408787
 20
124.18528376398861
 40
0.1638122668137421
  0
CIRCLE
  8
_1-0_
  6
CONTINUOUS
 62
    7
 10
295.34422178526182
 20
124.39815624340162
 40
0.1638122668137421
  0
CIRCLE
  8
_1-0_
  6
CONTINUOUS
 62
    7
 10
294.40568253800677
 20
123.52341935441301
 40
0.1638122668137421
  0
CIRCLE
  8
_1-0_
  6
CONTINUOUS
 62
    7
 10
296.85380265519427
 20
123.20409826330237
 40
0.1638122668137421
  0
CIRCLE
  8
_1-0_
  6
CONTINUOUS
 62
    7
 10
295.68296690244932
 20
123.41697074271538
 40
0.1638122668137421
  0
CIRCLE
  8
_1-0_
  6
CONTINUOUS
 62
    7
 10
295.25719719964104
 20
123.62984322212839
 40
0.1638122668137421
  0
CIRCLE
  8
_1-0_
  6
CONTINUOUS
 62
    7
 10
296.24331912478885
 20
122.53729742926521
 40
0.150517015843778
  0
CIRCLE
  8
_1-0_
  6
CONTINUOUS
 62
    7
 10
298.35895435230151
 20
122.25688625026395
 40
0.1638122668137421
  0
CIRCLE
  8
_1-0_
  6
CONTINUOUS
 62
    7
 10
299.63618922877959
 20
122.1504376385663
 40
0.1638122668137421
  0
CIRCLE
  8
_1-0_
  6
CONTINUOUS
 62
    7
 10
299.21044426995354
 20
122.36331011797931
 40
0.1638122668137421
  0
CIRCLE
  8
_1-0_
  6
CONTINUOUS
 62
    7
 10
300.51027040223818
 20
121.28507871885559
 40
0.1638122668137421
  0
CIRCLE
  8
_1-0_
  6
CONTINUOUS
 62
    7
 10
302.95834103146115
 20
120.96575762774494
 40
0.1638122668137421
  0
CIRCLE
  8
_1-0_
  6
CONTINUOUS
 62
    7
 10
301.78750527871625
 20
121.17863010715794
 40
0.1638122668137421
  0
CIRCLE
  8
_1-0_
  6
CONTINUOUS
 62
    7
 10
301.36176031989021
 20
121.39150258657095
 40
0.1638122668137421
  0
CIRCLE
  8
_1-0_
  6
CONTINUOUS
 62
    7
 10
302.34788224503802
 20
120.29895679370777
 40
0.150517015843778
  0
CIRCLE
  8
_1-0_
  6
CONTINUOUS
 62
    7
 10
304.46351747255068
 20
120.01854561470651
 40
0.1638122668137421
  0
CIRCLE
  8
_1-0_
  6
CONTINUOUS
 62
    7
 10
305.74075234902875
 20
119.91209700300888
 40
0.1638122668137421
  0
CIRCLE
  8
_1-0_
  6
CONTINUOUS
 62
    7
 10
305.31500739020271
 20
120.12496948242187
 40
0.1638122668137421
  0
CIRCLE
  8
_1-0_
  6
CONTINUOUS
 62
    7
 10
304.57996265308276
 20
119.25023259343328
 40
0.1638122668137421
  0
CIRCLE
  8
_1-0_
  6
CONTINUOUS
 62
    7
 10
307.02808277027026
 20
118.93091150232264
 40
0.1638122668137421
  0
CIRCLE
  8
_1-0_
  6
CONTINUOUS
 62
    7
 10
305.85724701752537
 20
119.14378398173565
 40
0.1638122668137421
  0
CIRCLE
  8
_1-0_
  6
CONTINUOUS
 62
    7
 10
305.43147731471709
 20
119.35665646114866
 40
0.1638122668137421
  0
CIRCLE
  8
_1-0_
  6
CONTINUOUS
 62
    7
 10
306.4175992398649
 20
118.26411066828548
 40
0.150517015843778
  0
CIRCLE
  8
_1-0_
  6
CONTINUOUS
 62
    7
 10
308.53323446737755
 20
117.98369948928421
 40
0.1638122668137421
  0
CIRCLE
  8
_1-0_
  6
CONTINUOUS
 62
    7
 10
309.81046934385557
 20
117.87725087758658
 40
0.1638122668137421
  0
CIRCLE
  8
_1-0_
  6
CONTINUOUS
 62
    7
 10
309.38472438502959
 20
118.09012335699958
 40
0.1638122668137421
  0
CIRCLE
  8
_1-0_
  6
CONTINUOUS
 62
    7
 10
308.8531494140625
 20
117.41885623416385
 40
0.1638122668137421
  0
CIRCLE
  8
_1-0_
  6
CONTINUOUS
 62
    7
 10
311.30126953125
 20
117.09953514305322
 40
0.1638122668137421
  0
CIRCLE
  8
_1-0_
  6
CONTINUOUS
 62
    7
 10
310.13043377850511
 20
117.31240762246622
 40
0.1638122668137421
  0
CIRCLE
  8
_1-0_
  6
CONTINUOUS
 62
    7
 10
309.70466407569683
 20
117.52528010187923
 40
0.1638122668137421
  0
CIRCLE
  8
_1-0_
  6
CONTINUOUS
 62
    7
 10
310.69078600084464
 20
116.43273430901606
 40
0.150517015843778
  0
CIRCLE
  8
_1-0_
  6
CONTINUOUS
 62
    7
 10
312.80642122835729
 20
116.15232313001479
 40
0.1638122668137421
  0
CIRCLE
  8
_1-0_
  6
CONTINUOUS
 62
    7
 10
314.08365610483531
 20
116.04587451831715
 40
0.1638122668137421
  0
CIRCLE
  8
_1-0_
  6
CONTINUOUS
 62
    7
 10
313.65791114600933
 20
116.25874699773016
 40
0.1638122668137421
  0
CIRCLE
  8
_1-0_
  6
CONTINUOUS
 62
    7
 10
313.73681970544766
 20
115.79097438502957
 40
0.1638122668137421
  0
CIRCLE
  8
_1-0_
  6
CONTINUOUS
 62
    7
 10
316.18489033467063
 20
115.47165329391892
 40
0.1638122668137421
  0
CIRCLE
  8
_1-0_
  6
CONTINUOUS
 62
    7
 10
315.01405458192568
 20
115.68452577333193
 40
0.1638122668137421
  0
CIRCLE
  8
_1-0_
  6
CONTINUOUS
 62
    7
 10
314.58830962309969
 20
115.89739825274494
 40
0.1638122668137421
  0
CIRCLE
  8
_1-0_
  6
CONTINUOUS
 62
    7
 10
315.5744315482475
 20
114.80485245988176
 40
0.150517015843778
  0
CIRCLE
  8
_1-0_
  6
CONTINUOUS
 62
    7
 10
317.69006677576016
 20
114.5244412808805
 40
0.1638122668137421
  0
CIRCLE
  8
_1-0_
  6
CONTINUOUS
 62
    7
 10
318.96730165223818
 20
114.41799266918287
 40
0.1638122668137421
  0
CIRCLE
  8
_1-0_
  6
CONTINUOUS
 62
    7
 10
318.54155669341219
 20
114.63086514859587
 40
0.1638122668137421
  0
CIRCLE
  8
_1-0_
  6
CONTINUOUS
 62
    7
 10
338.8124703072213
 20
101.74578898661846
 40
0.1638122668137421
  0
CIRCLE
  8
_1-0_
  6
CONTINUOUS
 62
    7
 10
341.26054093644427
 20
101.42646789550781
 40
0.1638122668137421
  0
CIRCLE
  8
_1-0_
  6
CONTINUOUS
 62
    7
 10
340.08970518369932
 20
101.63934037492082
 40
0.1638122668137421
  0
CIRCLE
  8
_1-0_
  6
CONTINUOUS
 62
    7
 10
339.66396022487334
 20
101.85221285433383
 40
0.1638122668137421
  0
CIRCLE
  8
_1-0_
  6
CONTINUOUS
 62
    7
 10
340.65008215002115
 20
100.75966706147065
 40
0.150517015843778
  0
CIRCLE
  8
_1-0_
  6
CONTINUOUS
 62
    7
 10
342.7657173775338
 20
100.47925588246939
 40
0.1638122668137421
  0
CIRCLE
  8
_1-0_
  6
CONTINUOUS
 62
    7
 10
344.04295225401182
 20
100.37280727077176
 40
0.1638122668137421
  0
CIRCLE
  8
_1-0_
  6
CONTINUOUS
 62
    7
 10
343.61720729518584
 20
100.58567975018477
 40
0.1638122668137421
  0
CIRCLE
  8
_1-0_
  6
CONTINUOUS
 62
    7
 10
336.87150285050677
 20
103.88081731023016
 40
0.1638122668137421
  0
CIRCLE
  8
_1-0_
  6
CONTINUOUS
 62
    7
 10
339.31962296769427
 20
103.56149621911952
 40
0.1638122668137421
  0
CIRCLE
  8
_1-0_
  6
CONTINUOUS
 62
    7
 10
338.14878721494932
 20
103.77436869853253
 40
0.1638122668137421
  0
CIRCLE
  8
_1-0_
  6
CONTINUOUS
 62
    7
 10
337.72301751214104
 20
103.98724117794553
 40
0.1638122668137421
  0
CIRCLE
  8
_1-0_
  6
CONTINUOUS
 62
    7
 10
338.70913943728885
 20
102.89469538508236
 40
0.150517015843778
  0
CIRCLE
  8
_1-0_
  6
CONTINUOUS
 62
    7
 10
340.82477466480157
 20
102.61428420608108
 40
0.1638122668137421
  0
CIRCLE
  8
_1-0_
  6
CONTINUOUS
 62
    7
 10
342.10200954127959
 20
102.50783559438345
 40
0.1638122668137421
  0
CIRCLE
  8
_1-0_
  6
CONTINUOUS
 62
    7
 10
341.67626458245354
 20
102.72070807379646
 40
0.1638122668137421
  0
CIRCLE
  8
_1-0_
  6
CONTINUOUS
 62
    7
 10
323.86725348395271
 20
110.67409206081082
 40
0.1638122668137421
  0
CIRCLE
  8
_1-0_
  6
CONTINUOUS
 62
    7
 10
326.31532411317568
 20
110.35477096970017
 40
0.1638122668137421
  0
CIRCLE
  8
_1-0_
  6
CONTINUOUS
 62
    7
 10
325.14448836043078
 20
110.56764344911318
 40
0.1638122668137421
  0
CIRCLE
  8
_1-0_
  6
CONTINUOUS
 62
    7
 10
324.71874340160474
 20
110.78051592852619
 40
0.1638122668137421
  0
CIRCLE
  8
_1-0_
  6
CONTINUOUS
 62
    7
 10
325.70486532675255
 20
109.68797013566301
 40
0.150517015843778
  0
CIRCLE
  8
_1-0_
  6
CONTINUOUS
 62
    7
 10
327.82050055426521
 20
109.40755895666175
 40
0.1638122668137421
  0
CIRCLE
  8
_1-0_
  6
CONTINUOUS
 62
    7
 10
329.09773543074328
 20
109.30111034496412
 40
0.1638122668137421
  0
CIRCLE
  8
_1-0_
  6
CONTINUOUS
 62
    7
 10
328.67199047191724
 20
109.51398282437712
 40
0.1638122668137421
  0
CIRCLE
  8
_1-0_
  6
CONTINUOUS
 62
    7
 10
320.17945985536318
 20
111.45047162030195
 40
0.1638122668137421
  0
CIRCLE
  8
_1-0_
  6
CONTINUOUS
 62
    7
 10
322.62757997255068
 20
111.1311505291913
 40
0.1638122668137421
  0
CIRCLE
  8
_1-0_
  6
CONTINUOUS
 62
    7
 10
321.45674421980578
 20
111.34402300860431
 40
0.1638122668137421
  0
CIRCLE
  8
_1-0_
  6
CONTINUOUS
 62
    7
 10
321.0309745169975
 20
111.55689548801732
 40
0.1638122668137421
  0
CIRCLE
  8
_1-0_
  6
CONTINUOUS
 62
    7
 10
322.01709644214532
 20
110.46434969515414
 40
0.150517015843778
  0
CIRCLE
  8
_1-0_
  6
CONTINUOUS
 62
    7
 10
324.13273166965797
 20
110.18393851615288
 40
0.1638122668137421
  0
CIRCLE
  8
_1-0_
  6
CONTINUOUS
 62
    7
 10
325.40996654613599
 20
110.07748990445525
 40
0.1638122668137421
  0
CIRCLE
  8
_1-0_
  6
CONTINUOUS
 62
    7
 10
324.98422158731
 20
110.29036238386826
 40
0.1638122668137421
  0
CIRCLE
  8
_1-0_
  6
CONTINUOUS
 62
    7
 10
330.46642406566724
 20
106.40403541358742
 40
0.1638122668137421
  0
CIRCLE
  8
_1-0_
  6
CONTINUOUS
 62
    7
 10
332.91454418285474
 20
106.08471432247678
 40
0.1638122668137421
  0
CIRCLE
  8
_1-0_
  6
CONTINUOUS
 62
    7
 10
331.74370843010979
 20
106.29758680188979
 40
0.1638122668137421
  0
CIRCLE
  8
_1-0_
  6
CONTINUOUS
 62
    7
 10
331.31793872730157
 20
106.51045928130279
 40
0.1638122668137421
  0
CIRCLE
  8
_1-0_
  6
CONTINUOUS
 62
    7
 10
332.30406065244932
 20
105.41791348843962
 40
0.150517015843778
  0
CIRCLE
  8
_1-0_
  6
CONTINUOUS
 62
    7
 10
334.41969587996203
 20
105.13750230943835
 40
0.1638122668137421
  0
CIRCLE
  8
_1-0_
  6
CONTINUOUS
 62
    7
 10
335.69693075644005
 20
105.03105369774072
 40
0.1638122668137421
  0
CIRCLE
  8
_1-0_
  6
CONTINUOUS
 62
    7
 10
335.27118579761407
 20
105.24392617715372
 40
0.1638122668137421
  0
CIRCLE
  8
_1-0_
  6
CONTINUOUS
 62
    7
 10
318.23854188661318
 20
112.80912657041809
 40
0.1638122668137421
  0
CIRCLE
  8
_1-0_
  6
CONTINUOUS
 62
    7
 10
320.68661251583615
 20
112.48980547930744
 40
0.1638122668137421
  0
CIRCLE
  8
_1-0_
  6
CONTINUOUS
 62
    7
 10
319.51577676309125
 20
112.70267795872044
 40
0.1638122668137421
  0
CIRCLE
  8
_1-0_
  6
CONTINUOUS
 62
    7
 10
319.09003180426521
 20
112.91555043813345
 40
0.1638122668137421
  0
CIRCLE
  8
_1-0_
  6
CONTINUOUS
 62
    7
 10
320.07615372941302
 20
111.82300464527027
 40
0.150517015843778
  0
CIRCLE
  8
_1-0_
  6
CONTINUOUS
 62
    7
 10
322.19178895692568
 20
111.54259346626901
 40
0.1638122668137421
  0
CIRCLE
  8
_1-0_
  6
CONTINUOUS
 62
    7
 10
323.46902383340375
 20
111.43614485457138
 40
0.1638122668137421
  0
CIRCLE
  8
_1-0_
  6
CONTINUOUS
 62
    7
 10
323.04327887457771
 20
111.64901733398437
 40
0.1638122668137421
  0
CIRCLE
  8
_1-0_
  6
CONTINUOUS
 62
    7
 10
324.64362067145271
 20
112.03275938291809
 40
0.1638122668137421
  0
CIRCLE
  8
_1-0_
  6
CONTINUOUS
 62
    7
 10
327.09174078864021
 20
111.71343829180744
 40
0.1638122668137421
  0
CIRCLE
  8
_1-0_
  6
CONTINUOUS
 62
    7
 10
325.92090503589532
 20
111.92631077122044
 40
0.1638122668137421
  0
CIRCLE
  8
_1-0_
  6
CONTINUOUS
 62
    7
 10
325.49513533308703
 20
112.13918325063345
 40
0.1638122668137421
  0
CIRCLE
  8
_1-0_
  6
CONTINUOUS
 62
    7
 10
326.48125725823479
 20
111.04663745777027
 40
0.150517015843778
  0
CIRCLE
  8
_1-0_
  6
CONTINUOUS
 62
    7
 10
328.5968924857475
 20
110.76622627876901
 40
0.1638122668137421
  0
CIRCLE
  8
_1-0_
  6
CONTINUOUS
 62
    7
 10
329.87412736222552
 20
110.65977766707138
 40
0.1638122668137421
  0
CIRCLE
  8
_1-0_
  6
CONTINUOUS
 62
    7
 10
329.44838240339953
 20
110.87265014648437
 40
0.1638122668137421
  0
CIRCLE
  8
_1-0_
  6
CONTINUOUS
 62
    7
 10
337.8420113228463
 20
107.95678216057856
 40
0.1638122668137421
  0
CIRCLE
  8
_1-0_
  6
CONTINUOUS
 62
    7
 10
340.29008195206927
 20
107.63746106946792
 40
0.1638122668137421
  0
CIRCLE
  8
_1-0_
  6
CONTINUOUS
 62
    7
 10
339.11924619932432
 20
107.85033354888091
 40
0.1638122668137421
  0
CIRCLE
  8
_1-0_
  6
CONTINUOUS
 62
    7
 10
338.69350124049834
 20
108.06320602829392
 40
0.1638122668137421
  0
CIRCLE
  8
_1-0_
  6
CONTINUOUS
 62
    7
 10
339.67962316564615
 20
106.97066023543074
 40
0.150517015843778
  0
CIRCLE
  8
_1-0_
  6
CONTINUOUS
 62
    7
 10
341.7952583931588
 20
106.69024905642948
 40
0.1638122668137421
  0
CIRCLE
  8
_1-0_
  6
CONTINUOUS
 62
    7
 10
343.07249326963682
 20
106.58380044473185
 40
0.1638122668137421
  0
CIRCLE
  8
_1-0_
  6
CONTINUOUS
 62
    7
 10
342.64674831081084
 20
106.79667292414486
 40
0.1638122668137421
  0
CIRCLE
  8
_1-0_
  6
CONTINUOUS
 62
    7
 10
346.18800807643584
 20
100.77532381624789
 40
0.1638122668137421
  0
CIRCLE
  8
_1-0_
  6
CONTINUOUS
 62
    7
 10
348.63612819362334
 20
100.45600272513725
 40
0.1638122668137421
  0
CIRCLE
  8
_1-0_
  6
CONTINUOUS
 62
    7
 10
347.46529244087839
 20
100.66887520455026
 40
0.1638122668137421
  0
CIRCLE
  8
_1-0_
  6
CONTINUOUS
 62
    7
 10
347.0395227380701
 20
100.88174768396327
 40
0.1638122668137421
  0
CIRCLE
  8
_1-0_
  6
CONTINUOUS
 62
    7
 10
348.02564466321792
 20
99.789201891100092
 40
0.150517015843778
  0
CIRCLE
  8
_1-0_
  6
CONTINUOUS
 62
    7
 10
350.14127989073057
 20
99.508790712098829
 40
0.1638122668137421
  0
CIRCLE
  8
_1-0_
  6
CONTINUOUS
 62
    7
 10
351.41851476720865
 20
99.402342100401185
 40
0.1638122668137421
  0
CIRCLE
  8
_1-0_
  6
CONTINUOUS
 62
    7
 10
350.9927698083826
 20
99.615214579814193
 40
0.1638122668137421
  0
CIRCLE
  8
_1-0_
  6
CONTINUOUS
 62
    7
 10
344.44118190456084
 20
101.35759920687289
 40
0.1638122668137421
  0
CIRCLE
  8
_1-0_
  6
CONTINUOUS
 62
    7
 10
346.88930202174834
 20
101.03827811576225
 40
0.1638122668137421
  0
CIRCLE
  8
_1-0_
  6
CONTINUOUS
 62
    7
 10
345.71846626900339
 20
101.25115059517526
 40
0.1638122668137421
  0
CIRCLE
  8
_1-0_
  6
CONTINUOUS
 62
    7
 10
345.2926965661951
 20
101.46402307458827
 40
0.1638122668137421
  0
CIRCLE
  8
_1-0_
  6
CONTINUOUS
 62
    7
 10
346.27881849134292
 20
100.37147728172509
 40
0.150517015843778
  0
CIRCLE
  8
_1-0_
  6
CONTINUOUS
 62
    7
 10
348.39445371885557
 20
100.09106610272383
 40
0.1638122668137421
  0
CIRCLE
  8
_1-0_
  6
CONTINUOUS
 62
    7
 10
349.67168859533365
 20
99.984617491026185
 40
0.1638122668137421
  0
CIRCLE
  8
_1-0_
  6
CONTINUOUS
 62
    7
 10
349.2459436365076
 20
100.19748997043919
 40
0.1638122668137421
  0
CIRCLE
  8
_1-0_
  6
CONTINUOUS
 62
    7
 10
353.3695035367399
 20
95.922979406408373
 40
0.1638122668137421
  0
CIRCLE
  8
_1-0_
  6
CONTINUOUS
 62
    7
 10
355.81757416596287
 20
95.603658315297722
 40
0.1638122668137421
  0
CIRCLE
  8
_1-0_
  6
CONTINUOUS
 62
    7
 10
354.64673841321792
 20
95.816530794710729
 40
0.1638122668137421
  0
CIRCLE
  8
_1-0_
  6
CONTINUOUS
 62
    7
 10
354.22099345439193
 20
96.029403274123737
 40
0.1638122668137421
  0
CIRCLE
  8
_1-0_
  6
CONTINUOUS
 62
    7
 10
355.20711537953974
 20
94.93685748126056
 40
0.150517015843778
  0
CIRCLE
  8
_1-0_
  6
CONTINUOUS
 62
    7
 10
357.3227506070524
 20
94.656446302259297
 40
0.1638122668137421
  0
CIRCLE
  8
_1-0_
  6
CONTINUOUS
 62
    7
 10
358.59998548353042
 20
94.549997690561668
 40
0.1638122668137421
  0
CIRCLE
  8
_1-0_
  6
CONTINUOUS
 62
    7
 10
358.17424052470443
 20
94.762870169974661
 40
0.1638122668137421
  0
CIRCLE
  8
_1-0_
  6
CONTINUOUS
 62
    7
 10
356.4749722867399
 20
94.176134676546667
 40
0.1638122668137421
  0
CIRCLE
  8
_1-0_
  6
CONTINUOUS
 62
    7
 10
358.9230924039274
 20
93.856813585436029
 40
0.1638122668137421
  0
CIRCLE
  8
_1-0_
  6
CONTINUOUS
 62
    7
 10
357.75225665118245
 20
94.069686064849037
 40
0.1638122668137421
  0
CIRCLE
  8
_1-0_
  6
CONTINUOUS
 62
    7
 10
357.32648694837417
 20
94.282558544262045
 40
0.1638122668137421
  0
CIRCLE
  8
_1-0_
  6
CONTINUOUS
 62
    7
 10
358.31260887352198
 20
93.190012751398868
 40
0.150517015843778
  0
CIRCLE
  8
_1-0_
  6
CONTINUOUS
 62
    7
 10
360.42824410103464
 20
92.909601572397591
 40
0.1638122668137421
  0
CIRCLE
  8
_1-0_
  6
CONTINUOUS
 62
    7
 10
361.70547897751271
 20
92.803152960699961
 40
0.1638122668137421
  0
CIRCLE
  8
_1-0_
  6
CONTINUOUS
 62
    7
 10
361.27973401868667
 20
93.016025440112969
 40
0.1638122668137421
  0
CIRCLE
  8
_1-0_
  6
CONTINUOUS
 62
    7
 10
359.58049052470443
 20
93.982036693676108
 40
0.1638122668137421
  0
CIRCLE
  8
_1-0_
  6
CONTINUOUS
 62
    7
 10
362.02861064189193
 20
93.662715602565456
 40
0.1638122668137421
  0
CIRCLE
  8
_1-0_
  6
CONTINUOUS
 62
    7
 10
360.85777488914698
 20
93.875588081978464
 40
0.1638122668137421
  0
CIRCLE
  8
_1-0_
  6
CONTINUOUS
 62
    7
 10
360.4320051863387
 20
94.088460561391472
 40
0.1638122668137421
  0
CIRCLE
  8
_1-0_
  6
CONTINUOUS
 62
    7
 10
361.41812711148651
 20
92.995914768528294
 40
0.150517015843778
  0
CIRCLE
  8
_1-0_
  6
CONTINUOUS
 62
    7
 10
363.53376233899917
 20
92.715503589527032
 40
0.1638122668137421
  0
CIRCLE
  8
_1-0_
  6
CONTINUOUS
 62
    7
 10
364.81099721547724
 20
92.609054977829402
 40
0.1638122668137421
  0
CIRCLE
  8
_1-0_
  6
CONTINUOUS
 62
    7
 10
364.3852522566512
 20
92.82192745724241
 40
0.1638122668137421
  0
CIRCLE
  8
_1-0_
  6
CONTINUOUS
 62
    7
 10
361.32731669657943
 20
98.252105712890625
 40
0.1638122668137421
  0
CIRCLE
  8
_1-0_
  6
CONTINUOUS
 62
    7
 10
363.77543681376693
 20
97.932784621779987
 40
0.1638122668137421
  0
CIRCLE
  8
_1-0_
  6
CONTINUOUS
 62
    7
 10
362.60460106102198
 20
98.145657101192995
 40
0.1638122668137421
  0
CIRCLE
  8
_1-0_
  6
CONTINUOUS
 62
    7
 10
362.1788313582137
 20
98.358529580606003
 40
0.1638122668137421
  0
CIRCLE
  8
_1-0_
  6
CONTINUOUS
 62
    7
 10
363.16495328336151
 20
97.265983787742826
 40
0.150517015843778
  0
CIRCLE
  8
_1-0_
  6
CONTINUOUS
 62
    7
 10
365.28058851087417
 20
96.985572608741563
 40
0.1638122668137421
  0
CIRCLE
  8
_1-0_
  6
CONTINUOUS
 62
    7
 10
366.55782338735224
 20
96.879123997043919
 40
0.1638122668137421
  0
CIRCLE
  8
_1-0_
  6
CONTINUOUS
 62
    7
 10
366.1320784285262
 20
97.091996476456927
 40
0.1638122668137421
  0
TEXT
  8
_0-0_
 62
    7
 10
141.89189395389042
 20
14.594594594594582
 40
2.5
 41
1
 50
0
  1
縮尺
  0
TEXT
  8
_0-0_
 62
    7
 10
377.10214563318203
 20
22.865493362014362
 40
2.5
 41
1
 50
0
  1
ＮＯ
  0
TEXT
  8
_1-0_
 62
    7
 10
169.90681828679266
 20
13.3181144095756
 40
2.5
 41
1
 50
0
  1
1/5
  0
TEXT
  8
_0-0_
 62
    7
 10
14.594594336844779
 20
24.324324324324323
 40
2.5
 41
1
 50
0
  1
Ｓ型
  0
TEXT
  8
_0-0_
 62
    7
 10
383.97877873601146
 20
17.689098667454061
 40
2.5
 41
1
 50
0
  1
Ｓ
  0
TEXT
  8
_1-3_
 62
    7
 10
131.86083200815563
 20
77.026798145191094
 40
2.5
 41
1
 50
0
  1
瓦桟
  0
TEXT
  8
_1-3_
 62
    7
 10
45.821771363954269
 20
167.47469515413852
 40
2.5
 41
1
 50
0
  1
Ｓ型　桟瓦
  0
TEXT
  8
_0-0_
 62
    7
 10
39.721903929839272
 20
15.395235628695104
 40
2.5
 41
1
 50
0
  1
棟
  0
TEXT
  8
_0-0_
 62
    7
 10
50.59271580464133
 20
15.395235628695104
 40
2.5
 41
1
 50
0
  1
1
  0
TEXT
  8
_1-3_
 62
    7
 10
336.77163201409417
 20
167.47469515413852
 40
2.5
 41
1
 50
0
  1
Ｓ型　桟瓦
  0
TEXT
  8
_1-1_
 62
    7
 10
159.29457999564505
 20
242.6695540144637
 40
2.5
 41
1
 50
0
  1
７寸冠瓦
  0
TEXT
  8
_1-1_
 62
    7
 10
395.58489412874792
 20
15.13383092107
 40
2.5
 41
1
 50
0
  1
20
  0
TEXT
  8
_1-1_
 62
    7
 10
25.556194717819636
 20
20.211577544341225
 40
2.5
 41
1
 50
0
  1
ＲＣ
  0
TEXT
  8
_1-3_
 62
    7
 10
216.37065578151396
 20
230.90735358160896
 40
2.5
 41
1
 50
0
  1
横筋
  0
TEXT
  8
_1-3_
 62
    7
 10
224.94207021352406
 20
230.67567567567568
 40
2.5
 41
1
 50
0
  1
９Φ
  0
TEXT
  8
_1-3_
 62
    7
 10
216.71814377243453
 20
224.88417341902451
 40
2.5
 41
1
 50
0
  1
縦筋　９Φ　＠900
  0
TEXT
  8
_1-0_
 62
    7
 10
218.24742085224875
 20
240.31068544130068
 40
2.5
 41
1
 50
0
  1
被膜銅線　０.９φ
  0
TEXT
  8
_1-0_
 62
    7
 10
123.88031418259081
 20
224.09135148331927
 40
2.5
 41
1
 50
0
  1
面戸漆喰及び葺き土
  0
TEXT
  8
_1-0_
 62
    7
 10
142.21483961639632
 20
43.983282632780998
 40
2.5
 41
1
 50
0
  1
棟部分の下葺き材（ゴムアス系ルーフィング）は、両方向へそれぞれ250ｍｍ以上重ね合わせること。
  0
TEXT
  8
_1-0_
 62
    7
 10
142.30263126546726
 20
39.871958631778043
 40
2.5
 41
1
 50
0
  1
隅棟部分の下葺き材（ゴムアス系ルーフィング）は、重ね貼りの上に両方向へそれぞれ250ｍｍ以上増し貼りをすること。
  0
LINE
  8
_1-0_
  6
DASHED1
 62
    7
 10
26.702344739759297
 20
99.717469086518165
 11
197.54670014252534
 21
176.59740551097974
  0
LINE
  8
_1-0_
  6
DASHED1
 62
    7
 10
197.54670014252534
 20
176.59740551097974
 11
243.14277527879037
 21
156.0791713723392
  0
LINE
  8
_1-0_
  6
DASHED1
 62
    7
 10
197.54670014252534
 20
176.34806061535338
 11
368.48436641693115
 21
99.426109790802002
  0
LINE
  8
_1-0_
  6
DASHED1
 62
    7
 10
197.54670014252534
 20
176.34806061535338
 11
151.9506225352965
 21
155.82983196774433
  0
POINT
  8
_1-0_
 62
    7
 10
170.32099360845802
 20
115.00679525235969
  0
POINT
  8
_1-0_
 62
    7
 10
215.91706696491153
 20
135.52503334613385
  0
LINE
  8
_1-0_
  6
CONTINUOUS
 62
    7
 10
170.32099360845802
 20
115.00679525235969
 11
154.23288685135026
 21
150.75813474413232
  0
LINE
  8
_1-0_
  6
CONTINUOUS
 62
    7
 10
215.91706696491153
 20
135.52503334613385
 11
199.82896020780376
 21
171.27637283790648
  0
LINE
  8
_1-0_
  6
CONTINUOUS
 62
    7
 10
170.32099360845802
 20
115.00679525235969
 11
215.91706696491153
 21
135.52503334613385
  0
TEXT
  8
_1-0_
 62
    7
 10
191.20399515488
 20
124.95244110429476
 40
2.5
 41
1
 50
24.227750629999989
  1
250
  0
POINT
  8
_1-0_
 62
    7
 10
180.71897645783113
 20
138.95312425981211
  0
POINT
  8
_1-0_
 62
    7
 10
226.2217407071457
 20
118.47687751888718
  0
LINE
  8
_1-0_
  6
CONTINUOUS
 62
    7
 10
180.71897645783113
 20
138.95312425981211
 11
195.26955575586169
 21
171.28774045516928
  0
LINE
  8
_1-0_
  6
CONTINUOUS
 62
    7
 10
226.2217407071457
 20
118.47687751888718
 11
240.77232000517625
 21
150.81149371424436
  0
LINE
  8
_1-0_
  6
CONTINUOUS
 62
    7
 10
180.71897645783113
 20
138.95312425981211
 11
226.2217407071457
 21
118.47687751888718
  0
TEXT
  8
_1-0_
 62
    7
 10
208.99944757942282
 20
126.3049625529361
 40
2.5
 41
1
 50
-24.227748279999979
  1
250
  0
TEXT
  8
_1-0_
 62
    7
 10
142.33853870790031
 20
73.78220952561891
 40
2.5
 41
1
 50
0
  1
※　地域により瓦桟木の大きさは、異なります
  0
TEXT
  8
_1-0_
 62
    7
 10
142.10765260939948
 20
76.969358161070758
 40
2.5
 41
1
 50
0
  1
15×21以上　（防腐処理）
  0
LINE
  8
_1-3_
  6
CONTINUOUS
 62
    7
 10
128.44437882706927
 20
57.735834028739603
 11
122.29134224556589
 21
57.735834028739603
  0
LINE
  8
_1-0_
  6
CONTINUOUS
 62
    7
 10
95.309402878220027
 20
133.99744807062922
 11
122.29134224556589
 21
57.735834028739603
  0
TEXT
  8
_1-3_
 62
    7
 10
131.8608278841586
 20
62.897453472890788
 40
2.5
 41
1
 50
0
  1
下葺き材
  0
TEXT
  8
_1-3_
 62
    7
 10
131.86082994615711
 20
68.897448524094344
 40
2.5
 41
1
 50
0
  1
流し桟
  0
TEXT
  8
_1-0_
 62
    7
 10
131.86082994615711
 20
56.897446049696114
 40
2.5
 41
1
 50
0
  1
パーライト系モルタル　　ｔ＝50
  0
TEXT
  8
_1-0_
 62
    7
 10
144.52396657262852
 20
62.684830606781262
 40
2.5
 41
1
 50
0
  1
アスファルトルーフィング９４０
  0
LINE
  8
_1-3_
  6
CONTINUOUS
 62
    7
 10
128.44437882706927
 20
63.906698649463848
 11
120.10804338502743
 21
63.906698649463848
  0
LINE
  8
_1-3_
  6
CONTINUOUS
 62
    7
 10
128.44437882706927
 20
69.84901547801114
 11
118.0056064725153
 21
69.84901547801114
  0
LINE
  8
_1-3_
  6
CONTINUOUS
 62
    7
 10
128.44437882706927
 20
78.377794832796667
 11
114.98805943631055
 21
78.377794832796667
  0
ARC
  8
_1-0_
  6
CONTINUOUS
 62
    5
 10
158.59258290883659
 20
186.51281408361487
 40
22.759372608081716
 50
339.11410522460937
 51
24.191955957142131
  0
ARC
  8
_1-0_
  6
CONTINUOUS
 62
    5
 10
259.97388685071792
 20
183.75441680083404
 40
46.417288909087311
 50
164.12256362535163
 51
186.01312255859372
  0
ENDSEC
  0
EOF
