0
SECTION
2
HEADER
9
$ACADVER
1
AC1009
9
$DWGCODEPAGE
3
ANSI_932
9
$EXTMIN
10
0.000
20
0.000
30
0.0
9
$EXTMAX
10
2100.000
20
1485.000
30
0.0
9
$LTSCALE
40
5.000
9
$PDMODE
70
0
9
$PDSIZE
40
40.0
0
ENDSEC
0
SECTION
2
TABLES
0
TABLE
2
LTYPE
70
9
0
LTYPE
5
1f4
2
CONTINUOUS
70
64
3
SolidLine
72
65
73
0
40
0.0
0
LTYPE
5
1f5
2
DOT
70
64
3
--  --  --  --  --  --  --  --     
72
65
73
2
40
3.000
49
1.000
49
-2.000
0
LTYPE
5
1f6
2
DASHED
70
64
3
----    ----    ----    ----    
72
65
73
2
40
5.000
49
2.000
49
-3.000
0
LTYPE
5
1f7
2
DASHED2
70
64
3
------  ------  ------  ------ 
72
65
73
2
40
10.000
49
4.000
49
-6.000
0
LTYPE
5
1f8
2
CENTER
70
64
3
----- - ----- - ----- - ----- - 
72
65
73
4
40
10.000
49
6.000
49
-3.000
49
1.000
49
-3.000
0
LTYPE
5
1f9
2
CENTER2
70
64
3
----------  --  ----------  -- 
72
65
73
4
40
17.000
49
12.000
49
-5.000
49
2.000
49
-5.000
0
LTYPE
5
1fa
2
PHANTOM
70
64
3
--- - - --- - - --- - - --- - -
72
65
73
6
40
13.000
49
5.000
49
-3.000
49
1.000
49
-3.000
49
1.000
49
-3.000
0
LTYPE
5
1fb
2
PHANTOM2
70
64
3
--------  -  -  --------  -  -
72
65
73
6
40
20.000
49
6.000
49
-5.000
49
2.000
49
-5.000
49
2.000
49
-5.000
0
LTYPE
5
1fc
2
HIDDEN
70
64
3
-   -   -   -   -   -   -   -   
72
65
73
2
40
3.000
49
0.500
49
-2.500
0
ENDTAB
0
TABLE
2
STYLE
70
1
0
STYLE
5
1fd
100
AcDbSymbolTableRecord
100
AcDbTextStyleTableRecord
2
STANDARD
70
0
40
0.0
41
1.0
50
0.0
71
0
42
0.0
3
txt.shx
4
extfont.shx
0
STYLE
5
1fe
100
AcDbSymbolTableRecord
100
AcDbTextStyleTableRecord
2
TATEGAKI
70
4
40
0.0
41
1.0
50
0.0
71
0
42
0.0
3
txt.shx
4
extfont.shx
0
STYLE
5
1ff
100
AcDbSymbolTableRecord
100
AcDbTextStyleTableRecord
2
DIM
70
0
40
0.0
41
0.75
50
0.0
71
0
42
0.0
3
txt.shx
4
extfont.shx
0
STYLE
5
200
100
AcDbSymbolTableRecord
100
AcDbTextStyleTableRecord
2
_Gothic__
70
0
40
0.0
41
1.0
50
0.0
71
0
42
0.0
3
MS Gothic
4

0
STYLE
5
201
100
AcDbSymbolTableRecord
100
AcDbTextStyleTableRecord
2
_TateGothic_
70
4
40
0.0
41
1.0
50
0.0
71
0
42
0.0
3
@MS Gothic
4

0
ENDTAB
0
TABLE
2
LAYER
5
403
100
AcDbSymbolTable
70
10
0
LAYER
5
404
100
AcDbSymbolTableRecord
100
AcDbLayerTableRecord
2
1-0
70
0
62
7
6
CONTINUOUS
0
LAYER
5
405
100
AcDbSymbolTableRecord
100
AcDbLayerTableRecord
2
2-0
70
0
62
7
6
CONTINUOUS
0
LAYER
5
406
100
AcDbSymbolTableRecord
100
AcDbLayerTableRecord
2
3-0
70
0
62
7
6
CONTINUOUS
0
LAYER
5
407
100
AcDbSymbolTableRecord
100
AcDbLayerTableRecord
2
4-0
70
0
62
7
6
CONTINUOUS
0
LAYER
5
408
100
AcDbSymbolTableRecord
100
AcDbLayerTableRecord
2
5-0
70
0
62
-7
6
CONTINUOUS
0
LAYER
5
409
100
AcDbSymbolTableRecord
100
AcDbLayerTableRecord
2
6-0
70
0
62
-7
6
CONTINUOUS
0
ENDTAB
0
ENDSEC
0
SECTION
2
ENTITIES
0
LINE
5
40a
100
AcDbEntity
8
6-0
6
HIDDEN
62
4
100
AcDbLine
10
851.870000000000
20
483.800000000000
30
0.0
11
861.680000000000
21
483.800000000000
31
0.0
0
LINE
5
40b
100
AcDbEntity
8
5-0
6
CONTINUOUS
62
7
100
AcDbLine
10
506.760000000000
20
469.050000000000
30
0.0
11
731.300000000000
21
469.050000000000
31
0.0
0
LINE
5
40c
100
AcDbEntity
8
5-0
6
CONTINUOUS
62
7
100
AcDbLine
10
531.110000000000
20
462.050000000000
30
0.0
11
531.110000000000
21
460.050000000000
31
0.0
0
LINE
5
40d
100
AcDbEntity
8
5-0
6
CONTINUOUS
62
7
100
AcDbLine
10
683.110000000000
20
454.050000000000
30
0.0
11
720.110000000000
21
454.050000000000
31
0.0
0
LINE
5
40e
100
AcDbEntity
8
5-0
6
CONTINUOUS
62
7
100
AcDbLine
10
683.030000000000
20
469.050000000000
30
0.0
11
718.200000000000
21
469.050000000000
31
0.0
0
LINE
5
40f
100
AcDbEntity
8
5-0
6
CONTINUOUS
62
7
100
AcDbLine
10
537.850000000000
20
473.450000000000
30
0.0
11
537.190000000000
21
474.450000000000
31
0.0
0
LINE
5
410
100
AcDbEntity
8
5-0
6
CONTINUOUS
62
7
100
AcDbLine
10
750.110000000000
20
484.540000000000
30
0.0
11
750.110000000000
21
441.690000000000
31
0.0
0
LINE
5
411
100
AcDbEntity
8
5-0
6
CONTINUOUS
62
7
100
AcDbLine
10
743.050000000000
20
469.050000000000
30
0.0
11
758.470000000000
21
469.050000000000
31
0.0
0
LINE
5
412
100
AcDbEntity
8
5-0
6
CONTINUOUS
62
7
100
AcDbLine
10
505.110000000000
20
484.050000000000
30
0.0
11
511.110000000000
21
480.050000000000
31
0.0
0
LINE
5
413
100
AcDbEntity
8
5-0
6
CONTINUOUS
62
7
100
AcDbLine
10
513.110000000000
20
477.050000000000
30
0.0
11
511.110000000000
21
480.050000000000
31
0.0
0
LINE
5
414
100
AcDbEntity
8
5-0
6
CONTINUOUS
62
7
100
AcDbLine
10
504.110000000000
20
483.050000000000
30
0.0
11
504.110000000000
21
469.050000000000
31
0.0
0
LINE
5
415
100
AcDbEntity
8
5-0
6
CONTINUOUS
62
7
100
AcDbLine
10
505.110000000000
20
484.050000000000
30
0.0
11
504.110000000000
21
483.050000000000
31
0.0
0
LINE
5
416
100
AcDbEntity
8
5-0
6
CONTINUOUS
62
7
100
AcDbLine
10
505.110000000000
20
484.050000000000
30
0.0
11
511.110000000000
21
484.050000000000
31
0.0
0
LINE
5
417
100
AcDbEntity
8
5-0
6
CONTINUOUS
62
7
100
AcDbLine
10
534.110000000000
20
462.050000000000
30
0.0
11
534.110000000000
21
460.050000000000
31
0.0
0
LINE
5
418
100
AcDbEntity
8
5-0
6
CONTINUOUS
62
7
100
AcDbLine
10
686.110000000000
20
454.050000000000
30
0.0
11
723.110000000000
21
454.050000000000
31
0.0
0
LINE
5
419
100
AcDbEntity
8
5-0
6
CONTINUOUS
62
7
100
AcDbLine
10
686.030000000000
20
469.050000000000
30
0.0
11
721.200000000000
21
469.050000000000
31
0.0
0
LINE
5
41a
100
AcDbEntity
8
5-0
6
CONTINUOUS
62
7
100
AcDbLine
10
540.850000000000
20
473.450000000000
30
0.0
11
540.190000000000
21
474.450000000000
31
0.0
0
LINE
5
41b
100
AcDbEntity
8
5-0
6
CONTINUOUS
62
7
100
AcDbLine
10
545.110000000000
20
526.970000000000
30
0.0
11
545.110000000000
21
439.210000000000
31
0.0
0
LINE
5
41c
100
AcDbEntity
8
5-0
6
CONTINUOUS
62
7
100
AcDbLine
10
632.710000000000
20
496.930000000000
30
0.0
11
495.810000000000
21
496.930000000000
31
0.0
0
LINE
5
41d
100
AcDbEntity
8
5-0
6
CONTINUOUS
62
7
100
AcDbLine
10
516.110000000000
20
477.050000000000
30
0.0
11
514.110000000000
21
480.050000000000
31
0.0
0
LINE
5
41e
100
AcDbEntity
8
5-0
6
CONTINUOUS
62
7
100
AcDbLine
10
507.110000000000
20
483.050000000000
30
0.0
11
507.110000000000
21
469.050000000000
31
0.0
0
LINE
5
41f
100
AcDbEntity
8
5-0
6
CONTINUOUS
62
7
100
AcDbLine
10
508.110000000000
20
484.000000000000
30
0.0
11
507.110000000000
21
483.050000000000
31
0.0
0
LINE
5
420
100
AcDbEntity
8
5-0
6
CONTINUOUS
62
7
100
AcDbLine
10
508.110000000000
20
484.000000000000
30
0.0
11
514.110000000000
21
480.050000000000
31
0.0
0
LINE
5
421
100
AcDbEntity
8
5-0
6
CONTINUOUS
62
7
100
AcDbLine
10
534.030000000000
20
462.050000000000
30
0.0
11
534.030000000000
21
460.050000000000
31
0.0
0
LINE
5
422
100
AcDbEntity
8
5-0
6
CONTINUOUS
62
7
100
AcDbLine
10
508.030000000000
20
484.000000000000
30
0.0
11
507.030000000000
21
483.050000000000
31
0.0
0
LINE
5
423
100
AcDbEntity
8
5-0
6
CONTINUOUS
62
7
100
AcDbLine
10
508.030000000000
20
484.000000000000
30
0.0
11
514.030000000000
21
480.050000000000
31
0.0
0
LINE
5
424
100
AcDbEntity
8
5-0
6
CONTINUOUS
62
7
100
AcDbLine
10
514.030000000000
20
480.050000000000
30
0.0
11
516.030000000000
21
477.050000000000
31
0.0
0
LINE
5
425
100
AcDbEntity
8
5-0
6
CONTINUOUS
62
7
100
AcDbLine
10
507.030000000000
20
483.050000000000
30
0.0
11
507.030000000000
21
469.050000000000
31
0.0
0
LINE
5
426
100
AcDbEntity
8
5-0
6
CONTINUOUS
62
7
100
AcDbLine
10
692.050000000000
20
454.050000000000
30
0.0
11
730.030000000000
21
454.050000000000
31
0.0
0
LINE
5
427
100
AcDbEntity
8
5-0
6
CONTINUOUS
62
7
100
AcDbLine
10
727.320000000000
20
468.050000000000
30
0.0
11
730.030000000000
21
468.050000000000
31
0.0
0
LINE
5
428
100
AcDbEntity
8
5-0
6
CONTINUOUS
62
7
100
AcDbLine
10
730.030000000000
20
468.050000000000
30
0.0
11
693.350000000000
21
468.050000000000
31
0.0
0
LINE
5
429
100
AcDbEntity
8
5-0
6
CONTINUOUS
62
7
100
AcDbLine
10
539.480000000000
20
472.660000000000
30
0.0
11
539.820000000000
21
471.650000000000
31
0.0
0
LINE
5
42a
100
AcDbEntity
8
5-0
6
CONTINUOUS
62
7
100
AcDbLine
10
1358.160000000000
20
1406.760000000000
30
0.0
11
1395.160000000000
21
1406.760000000000
31
0.0
0
LINE
5
42b
100
AcDbEntity
8
5-0
6
CONTINUOUS
62
7
100
AcDbLine
10
1358.160000000000
20
1293.240000000000
30
0.0
11
1358.160000000000
21
1406.760000000000
31
0.0
0
LINE
5
42c
100
AcDbEntity
8
5-0
6
CONTINUOUS
62
7
100
AcDbLine
10
1395.160000000000
20
1293.240000000000
30
0.0
11
1395.160000000000
21
1406.760000000000
31
0.0
0
LINE
5
42d
100
AcDbEntity
8
1-0
6
CONTINUOUS
62
7
100
AcDbLine
10
1132.420000000000
20
1036.640000000000
30
0.0
11
1132.420000000000
21
737.640000000000
31
0.0
0
LINE
5
42e
100
AcDbEntity
8
1-0
6
CONTINUOUS
62
7
100
AcDbLine
10
1127.420000000000
20
1036.640000000000
30
0.0
11
1132.420000000000
21
1036.640000000000
31
0.0
0
LINE
5
42f
100
AcDbEntity
8
1-0
6
CONTINUOUS
62
7
100
AcDbLine
10
1127.420000000000
20
1059.640000000000
30
0.0
11
1127.420000000000
21
1036.640000000000
31
0.0
0
LINE
5
430
100
AcDbEntity
8
1-0
6
CONTINUOUS
62
7
100
AcDbLine
10
1094.420000000000
20
1059.640000000000
30
0.0
11
1127.420000000000
21
1059.640000000000
31
0.0
0
LINE
5
431
100
AcDbEntity
8
1-0
6
CONTINUOUS
62
7
100
AcDbLine
10
819.420000000000
20
1084.640000000000
30
0.0
11
1094.420000000000
21
1084.640000000000
31
0.0
0
LINE
5
432
100
AcDbEntity
8
1-0
6
CONTINUOUS
62
7
100
AcDbLine
10
1094.420000000000
20
1084.640000000000
30
0.0
11
1094.420000000000
21
1059.640000000000
31
0.0
0
LINE
5
433
100
AcDbEntity
8
1-0
6
CONTINUOUS
62
7
100
AcDbLine
10
1094.420000000000
20
1084.640000000000
30
0.0
11
1111.420000000000
21
1084.640000000000
31
0.0
0
LINE
5
434
100
AcDbEntity
8
1-0
6
CONTINUOUS
62
7
100
AcDbLine
10
1111.420000000000
20
1084.640000000000
30
0.0
11
1111.420000000000
21
1059.640000000000
31
0.0
0
LINE
5
435
100
AcDbEntity
8
1-0
6
CONTINUOUS
62
7
100
AcDbLine
10
1116.420000000000
20
1059.640000000000
30
0.0
11
1116.420000000000
21
1056.100000000000
31
0.0
0
LINE
5
436
100
AcDbEntity
8
1-0
6
CONTINUOUS
62
7
100
AcDbLine
10
1005.920000000000
20
1071.640000000000
30
0.0
11
1028.920000000000
21
1071.640000000000
31
0.0
0
LINE
5
437
100
AcDbEntity
8
1-0
6
CONTINUOUS
62
7
100
AcDbLine
10
1005.920000000000
20
1084.640000000000
30
0.0
11
1005.920000000000
21
1071.640000000000
31
0.0
0
LINE
5
438
100
AcDbEntity
8
1-0
6
CONTINUOUS
62
7
100
AcDbLine
10
1028.920000000000
20
1084.640000000000
30
0.0
11
1028.920000000000
21
1071.640000000000
31
0.0
0
LINE
5
439
100
AcDbEntity
8
1-0
6
CONTINUOUS
62
7
100
AcDbLine
10
1028.420000000000
20
1068.640000000000
30
0.0
11
1006.420000000000
21
1068.640000000000
31
0.0
0
LINE
5
43a
100
AcDbEntity
8
1-0
6
CONTINUOUS
62
7
100
AcDbLine
10
1030.420000000000
20
1066.640000000000
30
0.0
11
1004.420000000000
21
1066.640000000000
31
0.0
0
LINE
5
43b
100
AcDbEntity
8
1-0
6
CONTINUOUS
62
7
100
AcDbLine
10
1017.420000000000
20
1079.640000000000
30
0.0
11
1005.920000000000
21
1071.640000000000
31
0.0
0
LINE
5
43c
100
AcDbEntity
8
1-0
6
CONTINUOUS
62
7
100
AcDbLine
10
1017.420000000000
20
1079.640000000000
30
0.0
11
1028.920000000000
21
1071.640000000000
31
0.0
0
LINE
5
43d
100
AcDbEntity
8
1-0
6
CONTINUOUS
62
7
100
AcDbLine
10
1003.420000000000
20
1071.640000000000
30
0.0
11
1003.420000000000
21
1079.140000000000
31
0.0
0
LINE
5
43e
100
AcDbEntity
8
1-0
6
CONTINUOUS
62
7
100
AcDbLine
10
1031.420000000000
20
1071.640000000000
30
0.0
11
1031.420000000000
21
1079.140000000000
31
0.0
0
LINE
5
43f
100
AcDbEntity
8
1-0
6
CONTINUOUS
62
7
100
AcDbLine
10
1001.420000000000
20
1069.640000000000
30
0.0
11
1001.420000000000
21
1077.640000000000
31
0.0
0
LINE
5
440
100
AcDbEntity
8
1-0
6
CONTINUOUS
62
7
100
AcDbLine
10
1033.420000000000
20
1069.640000000000
30
0.0
11
1033.420000000000
21
1077.640000000000
31
0.0
0
LINE
5
441
100
AcDbEntity
8
1-0
6
CONTINUOUS
62
7
100
AcDbLine
10
1017.420000000000
20
1084.640000000000
30
0.0
11
1017.420000000000
21
1079.640000000000
31
0.0
0
LINE
5
442
100
AcDbEntity
8
1-0
6
CONTINUOUS
62
7
100
AcDbLine
10
1033.420000000000
20
1077.640000000000
30
0.0
11
1046.420000000000
21
1079.140000000000
31
0.0
0
LINE
5
443
100
AcDbEntity
8
1-0
6
CONTINUOUS
62
7
100
AcDbLine
10
1070.420000000000
20
1079.140000000000
30
0.0
11
1090.420000000000
21
1077.640000000000
31
0.0
0
LINE
5
444
100
AcDbEntity
8
1-0
6
CONTINUOUS
62
7
100
AcDbLine
10
1070.420000000000
20
1079.140000000000
30
0.0
11
1091.420000000000
21
1079.140000000000
31
0.0
0
LINE
5
445
100
AcDbEntity
8
1-0
6
CONTINUOUS
62
7
100
AcDbLine
10
1091.420000000000
20
1057.760000000000
30
0.0
11
1091.420000000000
21
1079.140000000000
31
0.0
0
LINE
5
446
100
AcDbEntity
8
1-0
6
CONTINUOUS
62
7
100
AcDbLine
10
1093.530000000000
20
1055.760000000000
30
0.0
11
1116.420000000000
21
1057.100000000000
31
0.0
0
LINE
5
447
100
AcDbEntity
8
1-0
6
CONTINUOUS
62
7
100
AcDbLine
10
1092.530000000000
20
1054.700000000000
30
0.0
11
1116.420000000000
21
1056.100000000000
31
0.0
0
LINE
5
448
100
AcDbEntity
8
1-0
6
CONTINUOUS
62
7
100
AcDbLine
10
1090.420000000000
20
1056.700000000000
30
0.0
11
1090.420000000000
21
1077.640000000000
31
0.0
0
LINE
5
449
100
AcDbEntity
8
1-0
6
CONTINUOUS
62
7
100
AcDbLine
10
989.420000000000
20
1079.140000000000
30
0.0
11
1001.420000000000
21
1077.640000000000
31
0.0
0
LINE
5
44a
100
AcDbEntity
8
1-0
6
CONTINUOUS
62
7
100
AcDbLine
10
924.420000000000
20
1079.140000000000
30
0.0
11
969.420000000000
21
1079.140000000000
31
0.0
0
LINE
5
44b
100
AcDbEntity
8
1-0
6
CONTINUOUS
62
7
100
AcDbLine
10
989.420000000000
20
1079.140000000000
30
0.0
11
1003.420000000000
21
1079.140000000000
31
0.0
0
LINE
5
44c
100
AcDbEntity
8
1-0
6
CONTINUOUS
62
7
100
AcDbLine
10
1031.420000000000
20
1079.140000000000
30
0.0
11
1046.420000000000
21
1079.140000000000
31
0.0
0
LINE
5
44d
100
AcDbEntity
8
1-0
6
CONTINUOUS
62
7
100
AcDbLine
10
1007.820000000000
20
1043.640000000000
30
0.0
11
1033.920000000000
21
1043.640000000000
31
0.0
0
LINE
5
44e
100
AcDbEntity
8
1-0
6
CONTINUOUS
62
7
100
AcDbLine
10
1007.820000000000
20
1040.640000000000
30
0.0
11
1033.920000000000
21
1040.640000000000
31
0.0
0
LINE
5
44f
100
AcDbEntity
8
1-0
6
CONTINUOUS
62
7
100
AcDbLine
10
1129.420000000000
20
483.190000000000
30
0.0
11
1132.420000000000
21
483.190000000000
31
0.0
0
LINE
5
450
100
AcDbEntity
8
1-0
6
CONTINUOUS
62
7
100
AcDbLine
10
1129.420000000000
20
484.190000000000
30
0.0
11
1129.420000000000
21
483.190000000000
31
0.0
0
LINE
5
451
100
AcDbEntity
8
3-0
6
CONTINUOUS
62
7
100
AcDbLine
10
820.420000000000
20
495.140000000000
30
0.0
11
819.420000000000
21
494.190000000000
31
0.0
0
LINE
5
452
100
AcDbEntity
8
3-0
6
CONTINUOUS
62
7
100
AcDbLine
10
820.420000000000
20
495.140000000000
30
0.0
11
826.420000000000
21
491.190000000000
31
0.0
0
LINE
5
453
100
AcDbEntity
8
1-0
6
CONTINUOUS
62
7
100
AcDbLine
10
826.420000000000
20
491.190000000000
30
0.0
11
828.420000000000
21
488.190000000000
31
0.0
0
LINE
5
454
100
AcDbEntity
8
1-0
6
CONTINUOUS
62
7
100
AcDbLine
10
819.420000000000
20
494.190000000000
30
0.0
11
819.420000000000
21
480.190000000000
31
0.0
0
LINE
5
455
100
AcDbEntity
8
3-0
6
CONTINUOUS
62
7
100
AcDbLine
10
1004.440000000000
20
465.190000000000
30
0.0
11
1042.420000000000
21
465.190000000000
31
0.0
0
LINE
5
456
100
AcDbEntity
8
1-0
6
CONTINUOUS
62
7
100
AcDbLine
10
1132.420000000000
20
483.190000000000
30
0.0
11
1132.420000000000
21
490.190000000000
31
0.0
0
LINE
5
457
100
AcDbEntity
8
1-0
6
CONTINUOUS
62
7
100
AcDbLine
10
1039.710000000000
20
479.190000000000
30
0.0
11
1042.420000000000
21
479.190000000000
31
0.0
0
LINE
5
458
100
AcDbEntity
8
1-0
6
CONTINUOUS
62
7
100
AcDbLine
10
1042.420000000000
20
479.190000000000
30
0.0
11
1005.740000000000
21
479.190000000000
31
0.0
0
LINE
5
459
100
AcDbEntity
8
1-0
6
CONTINUOUS
62
7
100
AcDbLine
10
895.420000000000
20
465.190000000000
30
0.0
11
899.420000000000
21
465.190000000000
31
0.0
0
LINE
5
45a
100
AcDbEntity
8
1-0
6
CONTINUOUS
62
7
100
AcDbLine
10
1377.320000000000
20
1068.640000000000
30
0.0
11
1381.320000000000
21
1066.640000000000
31
0.0
0
LINE
5
45b
100
AcDbEntity
8
1-0
6
CONTINUOUS
62
7
100
AcDbLine
10
1389.320000000000
20
1076.450000000000
30
0.0
11
1402.320000000000
21
1084.640000000000
31
0.0
0
LINE
5
45c
100
AcDbEntity
8
1-0
6
CONTINUOUS
62
7
100
AcDbLine
10
1377.320000000000
20
1084.640000000000
30
0.0
11
1377.320000000000
21
1068.640000000000
31
0.0
0
LINE
5
45d
100
AcDbEntity
8
1-0
6
CONTINUOUS
62
7
100
AcDbLine
10
1389.320000000000
20
1076.450000000000
30
0.0
11
1389.320000000000
21
1071.640000000000
31
0.0
0
LINE
5
45e
100
AcDbEntity
8
1-0
6
CONTINUOUS
62
7
100
AcDbLine
10
1377.320000000000
20
1071.640000000000
30
0.0
11
1389.320000000000
21
1071.640000000000
31
0.0
0
LINE
5
45f
100
AcDbEntity
8
1-0
6
CONTINUOUS
62
7
100
AcDbLine
10
1381.320000000000
20
1066.640000000000
30
0.0
11
1381.320000000000
21
762.640000000000
31
0.0
0
LINE
5
460
100
AcDbEntity
8
1-0
6
CONTINUOUS
62
7
100
AcDbLine
10
1396.320000000000
20
737.640000000000
30
0.0
11
1405.320000000000
21
737.640000000000
31
0.0
0
LINE
5
461
100
AcDbEntity
8
1-0
6
CONTINUOUS
62
7
100
AcDbLine
10
1405.320000000000
20
742.640000000000
30
0.0
11
1405.320000000000
21
737.640000000000
31
0.0
0
LINE
5
462
100
AcDbEntity
8
1-0
6
CONTINUOUS
62
7
100
AcDbLine
10
1395.320000000000
20
760.670000000000
30
0.0
11
1395.320000000000
21
1072.860000000000
31
0.0
0
LINE
5
463
100
AcDbEntity
8
1-0
6
CONTINUOUS
62
7
100
AcDbLine
10
1397.000000000000
20
755.120000000000
30
0.0
11
1405.320000000000
21
742.640000000000
31
0.0
0
LINE
5
464
100
AcDbEntity
8
3-0
6
CONTINUOUS
62
7
100
AcDbLine
10
820.420000000000
20
223.520000000000
30
0.0
11
819.420000000000
21
222.570000000000
31
0.0
0
LINE
5
465
100
AcDbEntity
8
1-0
6
CONTINUOUS
62
7
100
AcDbLine
10
1132.420000000000
20
211.570000000000
30
0.0
11
1132.420000000000
21
218.570000000000
31
0.0
0
LINE
5
466
100
AcDbEntity
8
1-0
6
CONTINUOUS
62
7
100
AcDbLine
10
1039.710000000000
20
207.570000000000
30
0.0
11
1042.420000000000
21
207.570000000000
31
0.0
0
LINE
5
467
100
AcDbEntity
8
1-0
6
CONTINUOUS
62
7
100
AcDbLine
10
1042.420000000000
20
207.570000000000
30
0.0
11
1005.740000000000
21
207.570000000000
31
0.0
0
LINE
5
468
100
AcDbEntity
8
1-0
6
CONTINUOUS
62
7
100
AcDbLine
10
1039.710000000000
20
192.570000000000
30
0.0
11
1042.420000000000
21
192.570000000000
31
0.0
0
LINE
5
469
100
AcDbEntity
8
1-0
6
CONTINUOUS
62
7
100
AcDbLine
10
1042.420000000000
20
192.570000000000
30
0.0
11
1005.740000000000
21
192.570000000000
31
0.0
0
LINE
5
46a
100
AcDbEntity
8
1-0
6
CONTINUOUS
62
7
100
AcDbLine
10
1123.420000000000
20
203.750000000000
30
0.0
11
1132.420000000000
21
203.750000000000
31
0.0
0
LINE
5
46b
100
AcDbEntity
8
1-0
6
CONTINUOUS
62
7
100
AcDbLine
10
1132.420000000000
20
211.570000000000
30
0.0
11
1132.420000000000
21
203.750000000000
31
0.0
0
LINE
5
46c
100
AcDbEntity
8
1-0
6
CONTINUOUS
62
7
100
AcDbLine
10
1003.940000000000
20
183.750000000000
30
0.0
11
1041.540000000000
21
183.750000000000
31
0.0
0
LINE
5
46d
100
AcDbEntity
8
1-0
6
CONTINUOUS
62
7
100
AcDbLine
10
895.530000000000
20
182.570000000000
30
0.0
11
896.290000000000
21
182.580000000000
31
0.0
0
LINE
5
46e
100
AcDbEntity
8
1-0
6
CONTINUOUS
62
7
100
AcDbLine
10
819.420000000000
20
222.570000000000
30
0.0
11
819.420000000000
21
218.520000000000
31
0.0
0
LINE
5
46f
100
AcDbEntity
8
3-0
6
CONTINUOUS
62
7
100
AcDbLine
10
819.420000000000
20
1243.570000000000
30
0.0
11
1132.420000000000
21
1243.570000000000
31
0.0
0
LINE
5
470
100
AcDbEntity
8
3-0
6
CONTINUOUS
62
7
100
AcDbLine
10
819.420000000000
20
1130.060000000000
30
0.0
11
819.420000000000
21
1243.570000000000
31
0.0
0
LINE
5
471
100
AcDbEntity
8
3-0
6
CONTINUOUS
62
7
100
AcDbLine
10
1132.420000000000
20
1130.060000000000
30
0.0
11
1132.420000000000
21
1243.570000000000
31
0.0
0
LINE
5
472
100
AcDbEntity
8
1-0
6
CONTINUOUS
62
7
100
AcDbLine
10
1377.320000000000
20
1084.640000000000
30
0.0
11
1409.320000000000
21
1084.640000000000
31
0.0
0
LINE
5
473
100
AcDbEntity
8
1-0
6
CONTINUOUS
62
7
100
AcDbLine
10
1409.320000000000
20
1075.640000000000
30
0.0
11
1395.320000000000
21
1072.860000000000
31
0.0
0
LINE
5
474
100
AcDbEntity
8
1-0
6
CONTINUOUS
62
7
100
AcDbLine
10
1409.320000000000
20
1084.640000000000
30
0.0
11
1409.320000000000
21
1075.640000000000
31
0.0
0
LINE
5
475
100
AcDbEntity
8
1-0
6
CONTINUOUS
62
7
100
AcDbLine
10
1377.320000000000
20
1243.570000000000
30
0.0
11
1409.320000000000
21
1243.570000000000
31
0.0
0
LINE
5
476
100
AcDbEntity
8
1-0
6
CONTINUOUS
62
7
100
AcDbLine
10
1377.320000000000
20
1130.060000000000
30
0.0
11
1377.320000000000
21
1243.570000000000
31
0.0
0
LINE
5
477
100
AcDbEntity
8
1-0
6
CONTINUOUS
62
7
100
AcDbLine
10
1409.320000000000
20
1130.060000000000
30
0.0
11
1409.320000000000
21
1243.570000000000
31
0.0
0
LINE
5
478
100
AcDbEntity
8
1-0
6
CONTINUOUS
62
7
100
AcDbLine
10
1381.320000000000
20
627.360000000000
30
0.0
11
1405.320000000000
21
627.360000000000
31
0.0
0
LINE
5
479
100
AcDbEntity
8
1-0
6
CONTINUOUS
62
7
100
AcDbLine
10
1381.320000000000
20
688.170000000000
30
0.0
11
1381.320000000000
21
627.360000000000
31
0.0
0
LINE
5
47a
100
AcDbEntity
8
1-0
6
CONTINUOUS
62
7
100
AcDbLine
10
1405.320000000000
20
688.170000000000
30
0.0
11
1405.320000000000
21
627.360000000000
31
0.0
0
LINE
5
47b
100
AcDbEntity
8
1-0
6
CONTINUOUS
62
7
100
AcDbLine
10
529.970000000000
20
1084.640000000000
30
0.0
11
529.970000000000
21
737.640000000000
31
0.0
0
LINE
5
47c
100
AcDbEntity
8
1-0
6
CONTINUOUS
62
7
100
AcDbLine
10
740.780000000000
20
1084.640000000000
30
0.0
11
529.970000000000
21
1084.640000000000
31
0.0
0
LINE
5
47d
100
AcDbEntity
8
1-0
6
CONTINUOUS
62
7
100
AcDbLine
10
740.780000000000
20
737.640000000000
30
0.0
11
529.970000000000
21
737.640000000000
31
0.0
0
LINE
5
47e
100
AcDbEntity
8
1-0
6
CONTINUOUS
62
7
100
AcDbLine
10
529.970000000000
20
508.200000000000
30
0.0
11
529.970000000000
21
465.190000000000
31
0.0
0
LINE
5
47f
100
AcDbEntity
8
1-0
6
CONTINUOUS
62
7
100
AcDbLine
10
740.780000000000
20
508.200000000000
30
0.0
11
529.970000000000
21
508.200000000000
31
0.0
0
LINE
5
480
100
AcDbEntity
8
1-0
6
CONTINUOUS
62
7
100
AcDbLine
10
740.780000000000
20
465.190000000000
30
0.0
11
529.970000000000
21
465.190000000000
31
0.0
0
LINE
5
481
100
AcDbEntity
8
1-0
6
CONTINUOUS
62
7
100
AcDbLine
10
1247.540000000000
20
1084.640000000000
30
0.0
11
1247.540000000000
21
1036.640000000000
31
0.0
0
LINE
5
482
100
AcDbEntity
8
1-0
6
CONTINUOUS
62
7
100
AcDbLine
10
1190.780000000000
20
1084.640000000000
30
0.0
11
1247.540000000000
21
1084.640000000000
31
0.0
0
LINE
5
483
100
AcDbEntity
8
1-0
6
CONTINUOUS
62
7
100
AcDbLine
10
1190.780000000000
20
1036.640000000000
30
0.0
11
1247.540000000000
21
1036.640000000000
31
0.0
0
LINE
5
484
100
AcDbEntity
8
1-0
6
CONTINUOUS
62
7
100
AcDbLine
10
1247.540000000000
20
1036.640000000000
30
0.0
11
1247.540000000000
21
737.640000000000
31
0.0
0
LINE
5
485
100
AcDbEntity
8
1-0
6
CONTINUOUS
62
7
100
AcDbLine
10
1190.780000000000
20
737.640000000000
30
0.0
11
1247.540000000000
21
737.640000000000
31
0.0
0
LINE
5
486
100
AcDbEntity
8
1-0
6
CONTINUOUS
62
7
100
AcDbLine
10
1381.320000000000
20
931.410000000000
30
0.0
11
1395.320000000000
21
931.410000000000
31
0.0
0
LINE
5
487
100
AcDbEntity
8
1-0
6
CONTINUOUS
62
7
100
AcDbLine
10
1381.320000000000
20
886.820000000000
30
0.0
11
1381.320000000000
21
931.410000000000
31
0.0
0
LINE
5
488
100
AcDbEntity
8
1-0
6
CONTINUOUS
62
7
100
AcDbLine
10
1395.320000000000
20
886.820000000000
30
0.0
11
1395.320000000000
21
931.410000000000
31
0.0
0
LINE
5
489
100
AcDbEntity
8
1-0
6
CONTINUOUS
62
7
100
AcDbLine
10
828.420000000000
20
864.640000000000
30
0.0
11
860.420000000000
21
840.640000000000
31
0.0
0
LINE
5
48a
100
AcDbEntity
8
1-0
6
CONTINUOUS
62
7
100
AcDbLine
10
828.420000000000
20
871.710000000000
30
0.0
11
860.420000000000
21
847.710000000000
31
0.0
0
LINE
5
48b
100
AcDbEntity
8
1-0
6
CONTINUOUS
62
7
100
AcDbLine
10
828.420000000000
20
922.640000000000
30
0.0
11
860.420000000000
21
898.640000000000
31
0.0
0
LINE
5
48c
100
AcDbEntity
8
1-0
6
CONTINUOUS
62
7
100
AcDbLine
10
828.420000000000
20
929.710000000000
30
0.0
11
860.420000000000
21
905.710000000000
31
0.0
0
LINE
5
48d
100
AcDbEntity
8
1-0
6
CONTINUOUS
62
7
100
AcDbLine
10
828.420000000000
20
987.710000000000
30
0.0
11
860.420000000000
21
963.710000000000
31
0.0
0
LINE
5
48e
100
AcDbEntity
8
1-0
6
CONTINUOUS
62
7
100
AcDbLine
10
828.420000000000
20
980.640000000000
30
0.0
11
860.420000000000
21
956.640000000000
31
0.0
0
LINE
5
48f
100
AcDbEntity
8
1-0
6
CONTINUOUS
62
7
100
AcDbLine
10
828.420000000000
20
1045.710000000000
30
0.0
11
860.420000000000
21
1021.710000000000
31
0.0
0
LINE
5
490
100
AcDbEntity
8
1-0
6
CONTINUOUS
62
7
100
AcDbLine
10
828.420000000000
20
1038.640000000000
30
0.0
11
860.420000000000
21
1014.640000000000
31
0.0
0
LINE
5
491
100
AcDbEntity
8
1-0
6
CONTINUOUS
62
7
100
AcDbLine
10
870.420000000000
20
1040.640000000000
30
0.0
11
902.420000000000
21
1040.640000000000
31
0.0
0
LINE
5
492
100
AcDbEntity
8
1-0
6
CONTINUOUS
62
7
100
AcDbLine
10
870.420000000000
20
1043.640000000000
30
0.0
11
902.420000000000
21
1043.640000000000
31
0.0
0
LINE
5
493
100
AcDbEntity
8
1-0
6
CONTINUOUS
62
7
100
AcDbLine
10
860.420000000000
20
737.640000000000
30
0.0
11
860.420000000000
21
1075.640000000000
31
0.0
0
LINE
5
494
100
AcDbEntity
8
1-0
6
CONTINUOUS
62
7
100
AcDbLine
10
870.420000000000
20
1069.640000000000
30
0.0
11
870.420000000000
21
1075.640000000000
31
0.0
0
LINE
5
495
100
AcDbEntity
8
1-0
6
CONTINUOUS
62
7
100
AcDbLine
10
828.420000000000
20
1075.640000000000
30
0.0
11
870.420000000000
21
1075.640000000000
31
0.0
0
LINE
5
496
100
AcDbEntity
8
1-0
6
CONTINUOUS
62
7
100
AcDbLine
10
903.420000000000
20
1079.140000000000
30
0.0
11
912.420000000000
21
1079.140000000000
31
0.0
0
LINE
5
497
100
AcDbEntity
8
1-0
6
CONTINUOUS
62
7
100
AcDbLine
10
905.420000000000
20
1077.640000000000
30
0.0
11
912.420000000000
21
1079.140000000000
31
0.0
0
LINE
5
498
100
AcDbEntity
8
1-0
6
CONTINUOUS
62
7
100
AcDbLine
10
903.420000000000
20
1071.140000000000
30
0.0
11
903.420000000000
21
1079.140000000000
31
0.0
0
LINE
5
499
100
AcDbEntity
8
1-0
6
CONTINUOUS
62
7
100
AcDbLine
10
900.420000000000
20
1068.140000000000
30
0.0
11
875.420000000000
21
1068.140000000000
31
0.0
0
LINE
5
49a
100
AcDbEntity
8
1-0
6
CONTINUOUS
62
7
100
AcDbLine
10
872.420000000000
20
1071.140000000000
30
0.0
11
872.420000000000
21
1077.640000000000
31
0.0
0
LINE
5
49b
100
AcDbEntity
8
1-0
6
CONTINUOUS
62
7
100
AcDbLine
10
905.420000000000
20
1069.640000000000
30
0.0
11
905.420000000000
21
1077.640000000000
31
0.0
0
LINE
5
49c
100
AcDbEntity
8
1-0
6
CONTINUOUS
62
7
100
AcDbLine
10
902.420000000000
20
1066.640000000000
30
0.0
11
873.420000000000
21
1066.640000000000
31
0.0
0
LINE
5
49d
100
AcDbEntity
8
1-0
6
CONTINUOUS
62
7
100
AcDbLine
10
887.920000000000
20
1084.640000000000
30
0.0
11
887.920000000000
21
1079.640000000000
31
0.0
0
LINE
5
49e
100
AcDbEntity
8
1-0
6
CONTINUOUS
62
7
100
AcDbLine
10
887.920000000000
20
1079.640000000000
30
0.0
11
899.420000000000
21
1071.640000000000
31
0.0
0
LINE
5
49f
100
AcDbEntity
8
1-0
6
CONTINUOUS
62
7
100
AcDbLine
10
887.920000000000
20
1079.640000000000
30
0.0
11
876.420000000000
21
1071.640000000000
31
0.0
0
LINE
5
4a0
100
AcDbEntity
8
1-0
6
CONTINUOUS
62
7
100
AcDbLine
10
828.420000000000
20
1077.640000000000
30
0.0
11
872.420000000000
21
1077.640000000000
31
0.0
0
LINE
5
4a1
100
AcDbEntity
8
1-0
6
CONTINUOUS
62
7
100
AcDbLine
10
899.420000000000
20
1084.640000000000
30
0.0
11
899.420000000000
21
1071.640000000000
31
0.0
0
LINE
5
4a2
100
AcDbEntity
8
1-0
6
CONTINUOUS
62
7
100
AcDbLine
10
876.420000000000
20
1084.640000000000
30
0.0
11
876.420000000000
21
1071.640000000000
31
0.0
0
LINE
5
4a3
100
AcDbEntity
8
1-0
6
CONTINUOUS
62
7
100
AcDbLine
10
876.420000000000
20
1071.640000000000
30
0.0
11
899.420000000000
21
1071.640000000000
31
0.0
0
LINE
5
4a4
100
AcDbEntity
8
1-0
6
CONTINUOUS
62
7
100
AcDbLine
10
1132.420000000000
20
737.640000000000
30
0.0
11
860.420000000000
21
737.640000000000
31
0.0
0
LINE
5
4a5
100
AcDbEntity
8
6-0
6
HIDDEN
62
4
100
AcDbLine
10
852.420000000000
20
433.820000000000
30
0.0
11
852.420000000000
21
478.350000000000
31
0.0
0
LINE
5
4a6
100
AcDbEntity
8
6-0
6
HIDDEN
62
3
100
AcDbLine
10
860.420000000000
20
483.190000000000
30
0.0
11
860.770000000000
21
483.190000000000
31
0.0
0
LINE
5
4a7
100
AcDbEntity
8
6-0
6
HIDDEN
62
3
100
AcDbLine
10
860.420000000000
20
482.150000000000
30
0.0
11
860.420000000000
21
479.140000000000
31
0.0
0
LINE
5
4a8
100
AcDbEntity
8
6-0
6
HIDDEN
62
3
100
AcDbLine
10
860.420000000000
20
482.150000000000
30
0.0
11
860.420000000000
21
487.790000000000
31
0.0
0
LINE
5
4a9
100
AcDbEntity
8
1-0
6
CONTINUOUS
62
7
100
AcDbLine
10
854.420000000000
20
473.190000000000
30
0.0
11
854.420000000000
21
471.190000000000
31
0.0
0
LINE
5
4aa
100
AcDbEntity
8
1-0
6
CONTINUOUS
62
7
100
AcDbLine
10
856.830000000000
20
483.810000000000
30
0.0
11
857.200000000000
21
482.900000000000
31
0.0
0
LINE
5
4ab
100
AcDbEntity
8
6-0
6
HIDDEN
62
3
100
AcDbLine
10
857.200000000000
20
483.190000000000
30
0.0
11
864.240000000000
21
483.190000000000
31
0.0
0
LINE
5
4ac
100
AcDbEntity
8
3-0
6
CONTINUOUS
62
7
100
AcDbLine
10
859.880000000000
20
212.180000000000
30
0.0
11
860.190000000000
21
211.230000000000
31
0.0
0
LINE
5
4ad
100
AcDbEntity
8
6-0
6
HIDDEN
62
3
100
AcDbLine
10
860.430000000000
20
211.570000000000
30
0.0
11
859.960000000000
21
211.570000000000
31
0.0
0
LINE
5
4ae
100
AcDbEntity
8
6-0
6
HIDDEN
62
3
100
AcDbLine
10
860.430000000000
20
211.570000000000
30
0.0
11
860.780000000000
21
211.570000000000
31
0.0
0
LINE
5
4af
100
AcDbEntity
8
6-0
6
HIDDEN
62
3
100
AcDbLine
10
860.780000000000
20
211.570000000000
30
0.0
11
864.250000000000
21
211.570000000000
31
0.0
0
LINE
5
4b0
100
AcDbEntity
8
6-0
6
HIDDEN
62
3
100
AcDbLine
10
859.960000000000
20
211.570000000000
30
0.0
11
856.460000000000
21
211.570000000000
31
0.0
0
LINE
5
4b1
100
AcDbEntity
8
1-0
6
CONTINUOUS
62
7
100
AcDbLine
10
820.420000000000
20
223.520000000000
30
0.0
11
851.430000000000
21
214.080000000000
31
0.0
0
LINE
5
4b2
100
AcDbEntity
8
1-0
6
CONTINUOUS
62
7
100
AcDbLine
10
851.430000000000
20
214.080000000000
30
0.0
11
851.430000000000
21
212.870000000000
31
0.0
0
LINE
5
4b3
100
AcDbEntity
8
6-0
6
HIDDEN
62
3
100
AcDbLine
10
860.430000000000
20
210.530000000000
30
0.0
11
860.430000000000
21
207.520000000000
31
0.0
0
LINE
5
4b4
100
AcDbEntity
8
1-0
6
CONTINUOUS
62
7
100
AcDbLine
10
819.420000000000
20
218.520000000000
30
0.0
11
860.420000000000
21
198.390000000000
31
0.0
0
LINE
5
4b5
100
AcDbEntity
8
1-0
6
CONTINUOUS
62
7
100
AcDbLine
10
860.420000000000
20
211.070000000000
30
0.0
11
860.420000000000
21
210.590000000000
31
0.0
0
LINE
5
4b6
100
AcDbEntity
8
1-0
6
CONTINUOUS
62
7
100
AcDbLine
10
860.420000000000
20
210.590000000000
30
0.0
11
860.420000000000
21
183.990000000000
31
0.0
0
LINE
5
4b7
100
AcDbEntity
8
6-0
6
HIDDEN
62
3
100
AcDbLine
10
860.420000000000
20
210.590000000000
30
0.0
11
860.420000000000
21
216.510000000000
31
0.0
0
LINE
5
4b8
100
AcDbEntity
8
2-0
6
CONTINUOUS
62
7
100
AcDbLine
10
819.420000000000
20
1209.140000000000
30
0.0
11
819.420000000000
21
1130.060000000000
31
0.0
0
LINE
5
4b9
100
AcDbEntity
8
2-0
6
CONTINUOUS
62
7
100
AcDbLine
10
1132.420000000000
20
1209.140000000000
30
0.0
11
1132.420000000000
21
1130.060000000000
31
0.0
0
LINE
5
4ba
100
AcDbEntity
8
1-0
6
CONTINUOUS
62
7
100
AcDbLine
10
819.420000000000
20
757.640000000000
30
0.0
11
819.420000000000
21
1084.640000000000
31
0.0
0
LINE
5
4bb
100
AcDbEntity
8
1-0
6
CONTINUOUS
62
7
100
AcDbLine
10
828.420000000000
20
797.640000000000
30
0.0
11
828.420000000000
21
1077.640000000000
31
0.0
0
LINE
5
4bc
100
AcDbEntity
8
1-0
6
CONTINUOUS
62
7
100
AcDbLine
10
828.420000000000
20
805.640000000000
30
0.0
11
860.420000000000
21
781.640000000000
31
0.0
0
LINE
5
4bd
100
AcDbEntity
8
1-0
6
CONTINUOUS
62
7
100
AcDbLine
10
828.420000000000
20
812.710000000000
30
0.0
11
860.420000000000
21
788.710000000000
31
0.0
0
LINE
5
4be
100
AcDbEntity
8
1-0
6
CONTINUOUS
62
7
100
AcDbLine
10
828.420000000000
20
797.640000000000
30
0.0
11
851.420000000000
21
757.640000000000
31
0.0
0
LINE
5
4bf
100
AcDbEntity
8
1-0
6
CONTINUOUS
62
7
100
AcDbLine
10
860.420000000000
20
757.640000000000
30
0.0
11
819.420000000000
21
757.640000000000
31
0.0
0
LINE
5
4c0
100
AcDbEntity
8
3-0
6
CONTINUOUS
62
7
100
AcDbLine
10
819.420000000000
20
1211.790000000000
30
0.0
11
819.420000000000
21
1130.060000000000
31
0.0
0
LINE
5
4c1
100
AcDbEntity
8
3-0
6
CONTINUOUS
62
7
100
AcDbLine
10
860.420000000000
20
1211.790000000000
30
0.0
11
860.420000000000
21
1130.060000000000
31
0.0
0
LINE
5
4c2
100
AcDbEntity
8
3-0
6
CONTINUOUS
62
7
100
AcDbLine
10
819.420000000000
20
1211.790000000000
30
0.0
11
860.420000000000
21
1211.790000000000
31
0.0
0
LINE
5
4c3
100
AcDbEntity
8
3-0
6
CONTINUOUS
62
7
100
AcDbLine
10
1132.420000000000
20
1211.790000000000
30
0.0
11
1132.420000000000
21
1130.060000000000
31
0.0
0
LINE
5
4c4
100
AcDbEntity
8
3-0
6
CONTINUOUS
62
7
100
AcDbLine
10
860.420000000000
20
1211.790000000000
30
0.0
11
1132.420000000000
21
1211.790000000000
31
0.0
0
LINE
5
4c5
100
AcDbEntity
8
3-0
6
CONTINUOUS
62
7
100
AcDbLine
10
1132.420000000000
20
627.360000000000
30
0.0
11
1132.420000000000
21
688.170000000000
31
0.0
0
LINE
5
4c6
100
AcDbEntity
8
3-0
6
CONTINUOUS
62
7
100
AcDbLine
10
860.420000000000
20
627.360000000000
30
0.0
11
860.420000000000
21
688.170000000000
31
0.0
0
LINE
5
4c7
100
AcDbEntity
8
3-0
6
CONTINUOUS
62
7
100
AcDbLine
10
1132.420000000000
20
627.360000000000
30
0.0
11
860.420000000000
21
627.360000000000
31
0.0
0
LINE
5
4c8
100
AcDbEntity
8
3-0
6
CONTINUOUS
62
7
100
AcDbLine
10
819.420000000000
20
627.360000000000
30
0.0
11
819.420000000000
21
688.170000000000
31
0.0
0
LINE
5
4c9
100
AcDbEntity
8
3-0
6
CONTINUOUS
62
7
100
AcDbLine
10
860.420000000000
20
627.360000000000
30
0.0
11
819.420000000000
21
627.360000000000
31
0.0
0
LINE
5
4ca
100
AcDbEntity
8
3-0
6
CONTINUOUS
62
7
100
AcDbLine
10
819.420000000000
20
353.920000000000
30
0.0
11
819.420000000000
21
421.510000000000
31
0.0
0
LINE
5
4cb
100
AcDbEntity
8
3-0
6
CONTINUOUS
62
7
100
AcDbLine
10
860.420000000000
20
353.920000000000
30
0.0
11
860.420000000000
21
421.510000000000
31
0.0
0
LINE
5
4cc
100
AcDbEntity
8
3-0
6
CONTINUOUS
62
7
100
AcDbLine
10
819.420000000000
20
353.920000000000
30
0.0
11
860.420000000000
21
353.920000000000
31
0.0
0
LINE
5
4cd
100
AcDbEntity
8
3-0
6
CONTINUOUS
62
7
100
AcDbLine
10
1132.420000000000
20
353.920000000000
30
0.0
11
1132.420000000000
21
421.510000000000
31
0.0
0
LINE
5
4ce
100
AcDbEntity
8
3-0
6
CONTINUOUS
62
7
100
AcDbLine
10
860.420000000000
20
353.920000000000
30
0.0
11
1132.420000000000
21
353.920000000000
31
0.0
0
LINE
5
4cf
100
AcDbEntity
8
3-0
6
CONTINUOUS
62
7
100
AcDbLine
10
578.330000000000
20
737.640000000000
30
0.0
11
740.780000000000
21
737.640000000000
31
0.0
0
LINE
5
4d0
100
AcDbEntity
8
3-0
6
CONTINUOUS
62
7
100
AcDbLine
10
578.330000000000
20
757.640000000000
30
0.0
11
740.780000000000
21
757.640000000000
31
0.0
0
LINE
5
4d1
100
AcDbEntity
8
3-0
6
CONTINUOUS
62
7
100
AcDbLine
10
578.330000000000
20
737.640000000000
30
0.0
11
578.330000000000
21
757.640000000000
31
0.0
0
LINE
5
4d2
100
AcDbEntity
8
3-0
6
CONTINUOUS
62
7
100
AcDbLine
10
578.330000000000
20
1084.640000000000
30
0.0
11
740.780000000000
21
1084.640000000000
31
0.0
0
LINE
5
4d3
100
AcDbEntity
8
3-0
6
CONTINUOUS
62
7
100
AcDbLine
10
578.330000000000
20
757.640000000000
30
0.0
11
578.330000000000
21
1084.640000000000
31
0.0
0
LINE
5
4d4
100
AcDbEntity
8
4-0
6
CONTINUOUS
62
7
100
AcDbLine
10
1053.930000000000
20
777.640000000000
30
0.0
11
1053.930000000000
21
817.640000000000
31
0.0
0
LINE
5
4d5
100
AcDbEntity
8
4-0
6
CONTINUOUS
62
7
100
AcDbLine
10
869.990000000000
20
777.640000000000
30
0.0
11
869.990000000000
21
817.640000000000
31
0.0
0
LINE
5
4d6
100
AcDbEntity
8
4-0
6
CONTINUOUS
62
7
100
AcDbLine
10
928.170000000000
20
777.640000000000
30
0.0
11
928.170000000000
21
817.640000000000
31
0.0
0
LINE
5
4d7
100
AcDbEntity
8
4-0
6
CONTINUOUS
62
7
100
AcDbLine
10
991.170000000000
20
777.640000000000
30
0.0
11
991.170000000000
21
817.640000000000
31
0.0
0
LINE
5
4d8
100
AcDbEntity
8
4-0
6
CONTINUOUS
62
7
100
AcDbLine
10
1053.930000000000
20
777.640000000000
30
0.0
11
991.170000000000
21
777.640000000000
31
0.0
0
LINE
5
4d9
100
AcDbEntity
8
4-0
6
CONTINUOUS
62
7
100
AcDbLine
10
928.170000000000
20
777.640000000000
30
0.0
11
869.990000000000
21
777.640000000000
31
0.0
0
LINE
5
4da
100
AcDbEntity
8
4-0
6
CONTINUOUS
62
7
100
AcDbLine
10
1053.930000000000
20
817.640000000000
30
0.0
11
991.170000000000
21
817.640000000000
31
0.0
0
LINE
5
4db
100
AcDbEntity
8
4-0
6
CONTINUOUS
62
7
100
AcDbLine
10
928.170000000000
20
817.640000000000
30
0.0
11
869.990000000000
21
817.640000000000
31
0.0
0
LINE
5
4dc
100
AcDbEntity
8
1-0
6
CONTINUOUS
62
7
100
AcDbLine
10
912.420000000000
20
1079.140000000000
30
0.0
11
912.420000000000
21
817.640000000000
31
0.0
0
LINE
5
4dd
100
AcDbEntity
8
1-0
6
CONTINUOUS
62
7
100
AcDbLine
10
912.420000000000
20
777.640000000000
30
0.0
11
912.420000000000
21
737.640000000000
31
0.0
0
LINE
5
4de
100
AcDbEntity
8
6-0
6
HIDDEN
62
3
100
AcDbLine
10
996.800000000000
20
737.640000000000
30
0.0
11
996.800000000000
21
777.640000000000
31
0.0
0
LINE
5
4df
100
AcDbEntity
8
6-0
6
HIDDEN
62
3
100
AcDbLine
10
996.800000000000
20
817.640000000000
30
0.0
11
996.800000000000
21
1078.220000000000
31
0.0
0
LINE
5
4e0
100
AcDbEntity
8
1-0
6
CONTINUOUS
62
7
100
AcDbLine
10
1046.420000000000
20
1079.140000000000
30
0.0
11
1046.420000000000
21
817.640000000000
31
0.0
0
LINE
5
4e1
100
AcDbEntity
8
1-0
6
CONTINUOUS
62
7
100
AcDbLine
10
1046.420000000000
20
777.640000000000
30
0.0
11
1046.420000000000
21
737.640000000000
31
0.0
0
LINE
5
4e2
100
AcDbEntity
8
1-0
6
CONTINUOUS
62
7
100
AcDbLine
10
996.800000000000
20
1078.220000000000
30
0.0
11
996.800000000000
21
817.640000000000
31
0.0
0
LINE
5
4e3
100
AcDbEntity
8
1-0
6
CONTINUOUS
62
7
100
AcDbLine
10
996.800000000000
20
777.640000000000
30
0.0
11
996.800000000000
21
737.640000000000
31
0.0
0
LINE
5
4e4
100
AcDbEntity
8
4-0
6
CONTINUOUS
62
7
100
AcDbLine
10
1352.320000000000
20
817.640000000000
30
0.0
11
1352.320000000000
21
777.640000000000
31
0.0
0
LINE
5
4e5
100
AcDbEntity
8
4-0
6
CONTINUOUS
62
7
100
AcDbLine
10
1352.320000000000
20
817.640000000000
30
0.0
11
1381.320000000000
21
817.640000000000
31
0.0
0
LINE
5
4e6
100
AcDbEntity
8
4-0
6
CONTINUOUS
62
7
100
AcDbLine
10
1352.320000000000
20
777.640000000000
30
0.0
11
1381.320000000000
21
777.640000000000
31
0.0
0
LINE
5
4e7
100
AcDbEntity
8
4-0
6
CONTINUOUS
62
7
100
AcDbLine
10
1362.320000000000
20
817.640000000000
30
0.0
11
1362.320000000000
21
777.640000000000
31
0.0
0
LINE
5
4e8
100
AcDbEntity
8
5-0
6
CONTINUOUS
62
7
100
AcDbLine
10
504.110000000000
20
469.050000000000
30
0.0
11
505.300000000000
21
468.610000000000
31
0.0
0
LINE
5
4e9
100
AcDbEntity
8
5-0
6
CONTINUOUS
62
7
100
AcDbLine
10
505.300000000000
20
468.610000000000
30
0.0
11
506.560000000000
21
468.160000000000
31
0.0
0
LINE
5
4ea
100
AcDbEntity
8
5-0
6
CONTINUOUS
62
7
100
AcDbLine
10
506.560000000000
20
468.160000000000
30
0.0
11
507.880000000000
21
467.690000000000
31
0.0
0
LINE
5
4eb
100
AcDbEntity
8
5-0
6
CONTINUOUS
62
7
100
AcDbLine
10
507.880000000000
20
467.690000000000
30
0.0
11
509.250000000000
21
467.220000000000
31
0.0
0
LINE
5
4ec
100
AcDbEntity
8
5-0
6
CONTINUOUS
62
7
100
AcDbLine
10
509.250000000000
20
467.220000000000
30
0.0
11
510.660000000000
21
466.750000000000
31
0.0
0
LINE
5
4ed
100
AcDbEntity
8
5-0
6
CONTINUOUS
62
7
100
AcDbLine
10
510.660000000000
20
466.750000000000
30
0.0
11
512.090000000000
21
466.290000000000
31
0.0
0
LINE
5
4ee
100
AcDbEntity
8
5-0
6
CONTINUOUS
62
7
100
AcDbLine
10
512.090000000000
20
466.290000000000
30
0.0
11
513.550000000000
21
465.830000000000
31
0.0
0
LINE
5
4ef
100
AcDbEntity
8
5-0
6
CONTINUOUS
62
7
100
AcDbLine
10
513.550000000000
20
465.830000000000
30
0.0
11
515.020000000000
21
465.390000000000
31
0.0
0
LINE
5
4f0
100
AcDbEntity
8
5-0
6
CONTINUOUS
62
7
100
AcDbLine
10
515.020000000000
20
465.390000000000
30
0.0
11
516.500000000000
21
464.950000000000
31
0.0
0
LINE
5
4f1
100
AcDbEntity
8
5-0
6
CONTINUOUS
62
7
100
AcDbLine
10
516.500000000000
20
464.950000000000
30
0.0
11
517.990000000000
21
464.540000000000
31
0.0
0
LINE
5
4f2
100
AcDbEntity
8
5-0
6
CONTINUOUS
62
7
100
AcDbLine
10
517.990000000000
20
464.540000000000
30
0.0
11
519.470000000000
21
464.150000000000
31
0.0
0
LINE
5
4f3
100
AcDbEntity
8
5-0
6
CONTINUOUS
62
7
100
AcDbLine
10
519.470000000000
20
464.150000000000
30
0.0
11
520.950000000000
21
463.780000000000
31
0.0
0
LINE
5
4f4
100
AcDbEntity
8
5-0
6
CONTINUOUS
62
7
100
AcDbLine
10
520.950000000000
20
463.780000000000
30
0.0
11
522.420000000000
21
463.440000000000
31
0.0
0
LINE
5
4f5
100
AcDbEntity
8
5-0
6
CONTINUOUS
62
7
100
AcDbLine
10
522.420000000000
20
463.440000000000
30
0.0
11
523.880000000000
21
463.130000000000
31
0.0
0
LINE
5
4f6
100
AcDbEntity
8
5-0
6
CONTINUOUS
62
7
100
AcDbLine
10
523.880000000000
20
463.130000000000
30
0.0
11
525.340000000000
21
462.850000000000
31
0.0
0
LINE
5
4f7
100
AcDbEntity
8
5-0
6
CONTINUOUS
62
7
100
AcDbLine
10
525.340000000000
20
462.850000000000
30
0.0
11
526.790000000000
21
462.600000000000
31
0.0
0
LINE
5
4f8
100
AcDbEntity
8
5-0
6
CONTINUOUS
62
7
100
AcDbLine
10
526.790000000000
20
462.600000000000
30
0.0
11
528.230000000000
21
462.380000000000
31
0.0
0
LINE
5
4f9
100
AcDbEntity
8
5-0
6
CONTINUOUS
62
7
100
AcDbLine
10
528.230000000000
20
462.380000000000
30
0.0
11
529.670000000000
21
462.200000000000
31
0.0
0
LINE
5
4fa
100
AcDbEntity
8
5-0
6
CONTINUOUS
62
7
100
AcDbLine
10
529.670000000000
20
462.200000000000
30
0.0
11
531.110000000000
21
462.050000000000
31
0.0
0
LINE
5
4fb
100
AcDbEntity
8
5-0
6
CONTINUOUS
62
7
100
AcDbLine
10
531.110000000000
20
460.050000000000
30
0.0
11
531.650000000000
21
459.790000000000
31
0.0
0
LINE
5
4fc
100
AcDbEntity
8
5-0
6
CONTINUOUS
62
7
100
AcDbLine
10
531.650000000000
20
459.790000000000
30
0.0
11
532.130000000000
21
459.540000000000
31
0.0
0
LINE
5
4fd
100
AcDbEntity
8
5-0
6
CONTINUOUS
62
7
100
AcDbLine
10
532.130000000000
20
459.540000000000
30
0.0
11
532.570000000000
21
459.330000000000
31
0.0
0
LINE
5
4fe
100
AcDbEntity
8
5-0
6
CONTINUOUS
62
7
100
AcDbLine
10
532.570000000000
20
459.330000000000
30
0.0
11
532.980000000000
21
459.130000000000
31
0.0
0
LINE
5
4ff
100
AcDbEntity
8
5-0
6
CONTINUOUS
62
7
100
AcDbLine
10
532.980000000000
20
459.130000000000
30
0.0
11
533.360000000000
21
458.940000000000
31
0.0
0
LINE
5
500
100
AcDbEntity
8
5-0
6
CONTINUOUS
62
7
100
AcDbLine
10
533.360000000000
20
458.940000000000
30
0.0
11
533.720000000000
21
458.770000000000
31
0.0
0
LINE
5
501
100
AcDbEntity
8
5-0
6
CONTINUOUS
62
7
100
AcDbLine
10
533.720000000000
20
458.770000000000
30
0.0
11
534.060000000000
21
458.610000000000
31
0.0
0
LINE
5
502
100
AcDbEntity
8
5-0
6
CONTINUOUS
62
7
100
AcDbLine
10
534.060000000000
20
458.610000000000
30
0.0
11
534.390000000000
21
458.460000000000
31
0.0
0
LINE
5
503
100
AcDbEntity
8
5-0
6
CONTINUOUS
62
7
100
AcDbLine
10
534.390000000000
20
458.460000000000
30
0.0
11
534.710000000000
21
458.310000000000
31
0.0
0
LINE
5
504
100
AcDbEntity
8
5-0
6
CONTINUOUS
62
7
100
AcDbLine
10
534.710000000000
20
458.310000000000
30
0.0
11
535.010000000000
21
458.180000000000
31
0.0
0
LINE
5
505
100
AcDbEntity
8
5-0
6
CONTINUOUS
62
7
100
AcDbLine
10
535.010000000000
20
458.180000000000
30
0.0
11
535.310000000000
21
458.040000000000
31
0.0
0
LINE
5
506
100
AcDbEntity
8
5-0
6
CONTINUOUS
62
7
100
AcDbLine
10
535.310000000000
20
458.040000000000
30
0.0
11
535.610000000000
21
457.920000000000
31
0.0
0
LINE
5
507
100
AcDbEntity
8
5-0
6
CONTINUOUS
62
7
100
AcDbLine
10
535.610000000000
20
457.920000000000
30
0.0
11
535.890000000000
21
457.800000000000
31
0.0
0
LINE
5
508
100
AcDbEntity
8
5-0
6
CONTINUOUS
62
7
100
AcDbLine
10
535.890000000000
20
457.800000000000
30
0.0
11
536.180000000000
21
457.680000000000
31
0.0
0
LINE
5
509
100
AcDbEntity
8
5-0
6
CONTINUOUS
62
7
100
AcDbLine
10
536.180000000000
20
457.680000000000
30
0.0
11
536.470000000000
21
457.560000000000
31
0.0
0
LINE
5
50a
100
AcDbEntity
8
5-0
6
CONTINUOUS
62
7
100
AcDbLine
10
536.470000000000
20
457.560000000000
30
0.0
11
536.750000000000
21
457.450000000000
31
0.0
0
LINE
5
50b
100
AcDbEntity
8
5-0
6
CONTINUOUS
62
7
100
AcDbLine
10
536.750000000000
20
457.450000000000
30
0.0
11
537.040000000000
21
457.350000000000
31
0.0
0
LINE
5
50c
100
AcDbEntity
8
5-0
6
CONTINUOUS
62
7
100
AcDbLine
10
537.040000000000
20
457.350000000000
30
0.0
11
537.330000000000
21
457.240000000000
31
0.0
0
LINE
5
50d
100
AcDbEntity
8
5-0
6
CONTINUOUS
62
7
100
AcDbLine
10
537.330000000000
20
457.240000000000
30
0.0
11
537.620000000000
21
457.140000000000
31
0.0
0
LINE
5
50e
100
AcDbEntity
8
5-0
6
CONTINUOUS
62
7
100
AcDbLine
10
537.620000000000
20
457.140000000000
30
0.0
11
537.910000000000
21
457.040000000000
31
0.0
0
LINE
5
50f
100
AcDbEntity
8
5-0
6
CONTINUOUS
62
7
100
AcDbLine
10
537.910000000000
20
457.040000000000
30
0.0
11
538.200000000000
21
456.940000000000
31
0.0
0
LINE
5
510
100
AcDbEntity
8
5-0
6
CONTINUOUS
62
7
100
AcDbLine
10
538.200000000000
20
456.940000000000
30
0.0
11
538.500000000000
21
456.840000000000
31
0.0
0
LINE
5
511
100
AcDbEntity
8
5-0
6
CONTINUOUS
62
7
100
AcDbLine
10
538.500000000000
20
456.840000000000
30
0.0
11
538.800000000000
21
456.750000000000
31
0.0
0
LINE
5
512
100
AcDbEntity
8
5-0
6
CONTINUOUS
62
7
100
AcDbLine
10
538.800000000000
20
456.750000000000
30
0.0
11
539.110000000000
21
456.660000000000
31
0.0
0
LINE
5
513
100
AcDbEntity
8
5-0
6
CONTINUOUS
62
7
100
AcDbLine
10
539.110000000000
20
456.660000000000
30
0.0
11
539.420000000000
21
456.570000000000
31
0.0
0
LINE
5
514
100
AcDbEntity
8
5-0
6
CONTINUOUS
62
7
100
AcDbLine
10
539.420000000000
20
456.570000000000
30
0.0
11
539.730000000000
21
456.480000000000
31
0.0
0
LINE
5
515
100
AcDbEntity
8
5-0
6
CONTINUOUS
62
7
100
AcDbLine
10
539.730000000000
20
456.480000000000
30
0.0
11
540.050000000000
21
456.390000000000
31
0.0
0
LINE
5
516
100
AcDbEntity
8
5-0
6
CONTINUOUS
62
7
100
AcDbLine
10
540.050000000000
20
456.390000000000
30
0.0
11
540.380000000000
21
456.310000000000
31
0.0
0
LINE
5
517
100
AcDbEntity
8
5-0
6
CONTINUOUS
62
7
100
AcDbLine
10
540.380000000000
20
456.310000000000
30
0.0
11
540.710000000000
21
456.220000000000
31
0.0
0
LINE
5
518
100
AcDbEntity
8
5-0
6
CONTINUOUS
62
7
100
AcDbLine
10
540.710000000000
20
456.220000000000
30
0.0
11
541.040000000000
21
456.140000000000
31
0.0
0
LINE
5
519
100
AcDbEntity
8
5-0
6
CONTINUOUS
62
7
100
AcDbLine
10
541.040000000000
20
456.140000000000
30
0.0
11
541.380000000000
21
456.060000000000
31
0.0
0
LINE
5
51a
100
AcDbEntity
8
5-0
6
CONTINUOUS
62
7
100
AcDbLine
10
541.380000000000
20
456.060000000000
30
0.0
11
541.730000000000
21
455.990000000000
31
0.0
0
LINE
5
51b
100
AcDbEntity
8
5-0
6
CONTINUOUS
62
7
100
AcDbLine
10
541.730000000000
20
455.990000000000
30
0.0
11
542.090000000000
21
455.910000000000
31
0.0
0
LINE
5
51c
100
AcDbEntity
8
5-0
6
CONTINUOUS
62
7
100
AcDbLine
10
542.090000000000
20
455.910000000000
30
0.0
11
542.450000000000
21
455.840000000000
31
0.0
0
LINE
5
51d
100
AcDbEntity
8
5-0
6
CONTINUOUS
62
7
100
AcDbLine
10
542.450000000000
20
455.840000000000
30
0.0
11
542.830000000000
21
455.770000000000
31
0.0
0
LINE
5
51e
100
AcDbEntity
8
5-0
6
CONTINUOUS
62
7
100
AcDbLine
10
542.830000000000
20
455.770000000000
30
0.0
11
543.220000000000
21
455.700000000000
31
0.0
0
LINE
5
51f
100
AcDbEntity
8
5-0
6
CONTINUOUS
62
7
100
AcDbLine
10
543.220000000000
20
455.700000000000
30
0.0
11
543.630000000000
21
455.630000000000
31
0.0
0
LINE
5
520
100
AcDbEntity
8
5-0
6
CONTINUOUS
62
7
100
AcDbLine
10
543.630000000000
20
455.630000000000
30
0.0
11
544.060000000000
21
455.570000000000
31
0.0
0
LINE
5
521
100
AcDbEntity
8
5-0
6
CONTINUOUS
62
7
100
AcDbLine
10
544.060000000000
20
455.570000000000
30
0.0
11
544.510000000000
21
455.510000000000
31
0.0
0
LINE
5
522
100
AcDbEntity
8
5-0
6
CONTINUOUS
62
7
100
AcDbLine
10
544.510000000000
20
455.510000000000
30
0.0
11
544.980000000000
21
455.450000000000
31
0.0
0
LINE
5
523
100
AcDbEntity
8
5-0
6
CONTINUOUS
62
7
100
AcDbLine
10
544.980000000000
20
455.450000000000
30
0.0
11
545.490000000000
21
455.390000000000
31
0.0
0
LINE
5
524
100
AcDbEntity
8
5-0
6
CONTINUOUS
62
7
100
AcDbLine
10
545.490000000000
20
455.390000000000
30
0.0
11
546.030000000000
21
455.340000000000
31
0.0
0
LINE
5
525
100
AcDbEntity
8
5-0
6
CONTINUOUS
62
7
100
AcDbLine
10
546.030000000000
20
455.340000000000
30
0.0
11
546.620000000000
21
455.280000000000
31
0.0
0
LINE
5
526
100
AcDbEntity
8
5-0
6
CONTINUOUS
62
7
100
AcDbLine
10
546.620000000000
20
455.280000000000
30
0.0
11
547.250000000000
21
455.230000000000
31
0.0
0
LINE
5
527
100
AcDbEntity
8
5-0
6
CONTINUOUS
62
7
100
AcDbLine
10
547.250000000000
20
455.230000000000
30
0.0
11
547.930000000000
21
455.180000000000
31
0.0
0
LINE
5
528
100
AcDbEntity
8
5-0
6
CONTINUOUS
62
7
100
AcDbLine
10
547.930000000000
20
455.180000000000
30
0.0
11
548.670000000000
21
455.130000000000
31
0.0
0
LINE
5
529
100
AcDbEntity
8
5-0
6
CONTINUOUS
62
7
100
AcDbLine
10
548.670000000000
20
455.130000000000
30
0.0
11
549.470000000000
21
455.080000000000
31
0.0
0
LINE
5
52a
100
AcDbEntity
8
5-0
6
CONTINUOUS
62
7
100
AcDbLine
10
549.470000000000
20
455.080000000000
30
0.0
11
550.350000000000
21
455.030000000000
31
0.0
0
LINE
5
52b
100
AcDbEntity
8
5-0
6
CONTINUOUS
62
7
100
AcDbLine
10
550.350000000000
20
455.030000000000
30
0.0
11
551.300000000000
21
454.980000000000
31
0.0
0
LINE
5
52c
100
AcDbEntity
8
5-0
6
CONTINUOUS
62
7
100
AcDbLine
10
551.300000000000
20
454.980000000000
30
0.0
11
552.340000000000
21
454.930000000000
31
0.0
0
LINE
5
52d
100
AcDbEntity
8
5-0
6
CONTINUOUS
62
7
100
AcDbLine
10
552.340000000000
20
454.930000000000
30
0.0
11
553.460000000000
21
454.880000000000
31
0.0
0
LINE
5
52e
100
AcDbEntity
8
5-0
6
CONTINUOUS
62
7
100
AcDbLine
10
553.460000000000
20
454.880000000000
30
0.0
11
554.690000000000
21
454.830000000000
31
0.0
0
LINE
5
52f
100
AcDbEntity
8
5-0
6
CONTINUOUS
62
7
100
AcDbLine
10
554.690000000000
20
454.830000000000
30
0.0
11
556.020000000000
21
454.780000000000
31
0.0
0
LINE
5
530
100
AcDbEntity
8
5-0
6
CONTINUOUS
62
7
100
AcDbLine
10
556.020000000000
20
454.780000000000
30
0.0
11
557.450000000000
21
454.720000000000
31
0.0
0
LINE
5
531
100
AcDbEntity
8
5-0
6
CONTINUOUS
62
7
100
AcDbLine
10
557.450000000000
20
454.720000000000
30
0.0
11
559.010000000000
21
454.670000000000
31
0.0
0
LINE
5
532
100
AcDbEntity
8
5-0
6
CONTINUOUS
62
7
100
AcDbLine
10
559.010000000000
20
454.670000000000
30
0.0
11
560.690000000000
21
454.610000000000
31
0.0
0
LINE
5
533
100
AcDbEntity
8
5-0
6
CONTINUOUS
62
7
100
AcDbLine
10
560.690000000000
20
454.610000000000
30
0.0
11
562.500000000000
21
454.560000000000
31
0.0
0
LINE
5
534
100
AcDbEntity
8
5-0
6
CONTINUOUS
62
7
100
AcDbLine
10
562.500000000000
20
454.560000000000
30
0.0
11
564.450000000000
21
454.500000000000
31
0.0
0
LINE
5
535
100
AcDbEntity
8
5-0
6
CONTINUOUS
62
7
100
AcDbLine
10
564.450000000000
20
454.500000000000
30
0.0
11
566.550000000000
21
454.440000000000
31
0.0
0
LINE
5
536
100
AcDbEntity
8
5-0
6
CONTINUOUS
62
7
100
AcDbLine
10
566.550000000000
20
454.440000000000
30
0.0
11
568.830000000000
21
454.370000000000
31
0.0
0
LINE
5
537
100
AcDbEntity
8
5-0
6
CONTINUOUS
62
7
100
AcDbLine
10
568.830000000000
20
454.370000000000
30
0.0
11
571.290000000000
21
454.300000000000
31
0.0
0
LINE
5
538
100
AcDbEntity
8
5-0
6
CONTINUOUS
62
7
100
AcDbLine
10
571.290000000000
20
454.300000000000
30
0.0
11
573.960000000000
21
454.230000000000
31
0.0
0
LINE
5
539
100
AcDbEntity
8
5-0
6
CONTINUOUS
62
7
100
AcDbLine
10
573.960000000000
20
454.230000000000
30
0.0
11
576.890000000000
21
454.140000000000
31
0.0
0
LINE
5
53a
100
AcDbEntity
8
5-0
6
CONTINUOUS
62
7
100
AcDbLine
10
576.890000000000
20
454.140000000000
30
0.0
11
580.110000000000
21
454.050000000000
31
0.0
0
LINE
5
53b
100
AcDbEntity
8
5-0
6
CONTINUOUS
62
7
100
AcDbLine
10
580.110000000000
20
454.050000000000
30
0.0
11
581.420000000000
21
454.260000000000
31
0.0
0
LINE
5
53c
100
AcDbEntity
8
5-0
6
CONTINUOUS
62
7
100
AcDbLine
10
581.420000000000
20
454.260000000000
30
0.0
11
582.670000000000
21
454.500000000000
31
0.0
0
LINE
5
53d
100
AcDbEntity
8
5-0
6
CONTINUOUS
62
7
100
AcDbLine
10
582.670000000000
20
454.500000000000
30
0.0
11
583.880000000000
21
454.770000000000
31
0.0
0
LINE
5
53e
100
AcDbEntity
8
5-0
6
CONTINUOUS
62
7
100
AcDbLine
10
583.880000000000
20
454.770000000000
30
0.0
11
585.050000000000
21
455.070000000000
31
0.0
0
LINE
5
53f
100
AcDbEntity
8
5-0
6
CONTINUOUS
62
7
100
AcDbLine
10
585.050000000000
20
455.070000000000
30
0.0
11
586.190000000000
21
455.430000000000
31
0.0
0
LINE
5
540
100
AcDbEntity
8
5-0
6
CONTINUOUS
62
7
100
AcDbLine
10
586.190000000000
20
455.430000000000
30
0.0
11
587.290000000000
21
455.820000000000
31
0.0
0
LINE
5
541
100
AcDbEntity
8
5-0
6
CONTINUOUS
62
7
100
AcDbLine
10
587.290000000000
20
455.820000000000
30
0.0
11
588.360000000000
21
456.260000000000
31
0.0
0
LINE
5
542
100
AcDbEntity
8
5-0
6
CONTINUOUS
62
7
100
AcDbLine
10
588.360000000000
20
456.260000000000
30
0.0
11
589.410000000000
21
456.750000000000
31
0.0
0
LINE
5
543
100
AcDbEntity
8
5-0
6
CONTINUOUS
62
7
100
AcDbLine
10
589.410000000000
20
456.750000000000
30
0.0
11
590.430000000000
21
457.280000000000
31
0.0
0
LINE
5
544
100
AcDbEntity
8
5-0
6
CONTINUOUS
62
7
100
AcDbLine
10
590.430000000000
20
457.280000000000
30
0.0
11
591.430000000000
21
457.860000000000
31
0.0
0
LINE
5
545
100
AcDbEntity
8
5-0
6
CONTINUOUS
62
7
100
AcDbLine
10
591.430000000000
20
457.860000000000
30
0.0
11
592.400000000000
21
458.470000000000
31
0.0
0
LINE
5
546
100
AcDbEntity
8
5-0
6
CONTINUOUS
62
7
100
AcDbLine
10
592.400000000000
20
458.470000000000
30
0.0
11
593.350000000000
21
459.120000000000
31
0.0
0
LINE
5
547
100
AcDbEntity
8
5-0
6
CONTINUOUS
62
7
100
AcDbLine
10
593.350000000000
20
459.120000000000
30
0.0
11
594.280000000000
21
459.810000000000
31
0.0
0
LINE
5
548
100
AcDbEntity
8
5-0
6
CONTINUOUS
62
7
100
AcDbLine
10
594.280000000000
20
459.810000000000
30
0.0
11
595.190000000000
21
460.520000000000
31
0.0
0
LINE
5
549
100
AcDbEntity
8
5-0
6
CONTINUOUS
62
7
100
AcDbLine
10
595.190000000000
20
460.520000000000
30
0.0
11
596.090000000000
21
461.260000000000
31
0.0
0
LINE
5
54a
100
AcDbEntity
8
5-0
6
CONTINUOUS
62
7
100
AcDbLine
10
596.090000000000
20
461.260000000000
30
0.0
11
596.970000000000
21
462.020000000000
31
0.0
0
LINE
5
54b
100
AcDbEntity
8
5-0
6
CONTINUOUS
62
7
100
AcDbLine
10
596.970000000000
20
462.020000000000
30
0.0
11
597.840000000000
21
462.800000000000
31
0.0
0
LINE
5
54c
100
AcDbEntity
8
5-0
6
CONTINUOUS
62
7
100
AcDbLine
10
597.840000000000
20
462.800000000000
30
0.0
11
598.700000000000
21
463.600000000000
31
0.0
0
LINE
5
54d
100
AcDbEntity
8
5-0
6
CONTINUOUS
62
7
100
AcDbLine
10
598.700000000000
20
463.600000000000
30
0.0
11
599.560000000000
21
464.410000000000
31
0.0
0
LINE
5
54e
100
AcDbEntity
8
5-0
6
CONTINUOUS
62
7
100
AcDbLine
10
599.560000000000
20
464.410000000000
30
0.0
11
600.410000000000
21
465.230000000000
31
0.0
0
LINE
5
54f
100
AcDbEntity
8
5-0
6
CONTINUOUS
62
7
100
AcDbLine
10
600.410000000000
20
465.230000000000
30
0.0
11
601.270000000000
21
466.060000000000
31
0.0
0
LINE
5
550
100
AcDbEntity
8
5-0
6
CONTINUOUS
62
7
100
AcDbLine
10
601.270000000000
20
466.060000000000
30
0.0
11
602.130000000000
21
466.890000000000
31
0.0
0
LINE
5
551
100
AcDbEntity
8
5-0
6
CONTINUOUS
62
7
100
AcDbLine
10
602.130000000000
20
466.890000000000
30
0.0
11
602.990000000000
21
467.720000000000
31
0.0
0
LINE
5
552
100
AcDbEntity
8
5-0
6
CONTINUOUS
62
7
100
AcDbLine
10
602.990000000000
20
467.720000000000
30
0.0
11
603.870000000000
21
468.550000000000
31
0.0
0
LINE
5
553
100
AcDbEntity
8
5-0
6
CONTINUOUS
62
7
100
AcDbLine
10
603.870000000000
20
468.550000000000
30
0.0
11
604.750000000000
21
469.380000000000
31
0.0
0
LINE
5
554
100
AcDbEntity
8
5-0
6
CONTINUOUS
62
7
100
AcDbLine
10
604.750000000000
20
469.380000000000
30
0.0
11
605.650000000000
21
470.200000000000
31
0.0
0
LINE
5
555
100
AcDbEntity
8
5-0
6
CONTINUOUS
62
7
100
AcDbLine
10
605.650000000000
20
470.200000000000
30
0.0
11
606.560000000000
21
471.000000000000
31
0.0
0
LINE
5
556
100
AcDbEntity
8
5-0
6
CONTINUOUS
62
7
100
AcDbLine
10
606.560000000000
20
471.000000000000
30
0.0
11
607.480000000000
21
471.800000000000
31
0.0
0
LINE
5
557
100
AcDbEntity
8
5-0
6
CONTINUOUS
62
7
100
AcDbLine
10
607.480000000000
20
471.800000000000
30
0.0
11
608.420000000000
21
472.580000000000
31
0.0
0
LINE
5
558
100
AcDbEntity
8
5-0
6
CONTINUOUS
62
7
100
AcDbLine
10
608.420000000000
20
472.580000000000
30
0.0
11
609.370000000000
21
473.340000000000
31
0.0
0
LINE
5
559
100
AcDbEntity
8
5-0
6
CONTINUOUS
62
7
100
AcDbLine
10
609.370000000000
20
473.340000000000
30
0.0
11
610.340000000000
21
474.080000000000
31
0.0
0
LINE
5
55a
100
AcDbEntity
8
5-0
6
CONTINUOUS
62
7
100
AcDbLine
10
610.340000000000
20
474.080000000000
30
0.0
11
611.320000000000
21
474.800000000000
31
0.0
0
LINE
5
55b
100
AcDbEntity
8
5-0
6
CONTINUOUS
62
7
100
AcDbLine
10
611.320000000000
20
474.800000000000
30
0.0
11
612.310000000000
21
475.490000000000
31
0.0
0
LINE
5
55c
100
AcDbEntity
8
5-0
6
CONTINUOUS
62
7
100
AcDbLine
10
612.310000000000
20
475.490000000000
30
0.0
11
613.320000000000
21
476.140000000000
31
0.0
0
LINE
5
55d
100
AcDbEntity
8
5-0
6
CONTINUOUS
62
7
100
AcDbLine
10
613.320000000000
20
476.140000000000
30
0.0
11
614.340000000000
21
476.770000000000
31
0.0
0
LINE
5
55e
100
AcDbEntity
8
5-0
6
CONTINUOUS
62
7
100
AcDbLine
10
614.340000000000
20
476.770000000000
30
0.0
11
615.380000000000
21
477.370000000000
31
0.0
0
LINE
5
55f
100
AcDbEntity
8
5-0
6
CONTINUOUS
62
7
100
AcDbLine
10
615.380000000000
20
477.370000000000
30
0.0
11
616.420000000000
21
477.930000000000
31
0.0
0
LINE
5
560
100
AcDbEntity
8
5-0
6
CONTINUOUS
62
7
100
AcDbLine
10
616.420000000000
20
477.930000000000
30
0.0
11
617.490000000000
21
478.450000000000
31
0.0
0
LINE
5
561
100
AcDbEntity
8
5-0
6
CONTINUOUS
62
7
100
AcDbLine
10
617.490000000000
20
478.450000000000
30
0.0
11
618.560000000000
21
478.940000000000
31
0.0
0
LINE
5
562
100
AcDbEntity
8
5-0
6
CONTINUOUS
62
7
100
AcDbLine
10
618.560000000000
20
478.940000000000
30
0.0
11
619.660000000000
21
479.390000000000
31
0.0
0
LINE
5
563
100
AcDbEntity
8
5-0
6
CONTINUOUS
62
7
100
AcDbLine
10
619.660000000000
20
479.390000000000
30
0.0
11
620.780000000000
21
479.800000000000
31
0.0
0
LINE
5
564
100
AcDbEntity
8
5-0
6
CONTINUOUS
62
7
100
AcDbLine
10
620.780000000000
20
479.800000000000
30
0.0
11
621.930000000000
21
480.180000000000
31
0.0
0
LINE
5
565
100
AcDbEntity
8
5-0
6
CONTINUOUS
62
7
100
AcDbLine
10
621.930000000000
20
480.180000000000
30
0.0
11
623.110000000000
21
480.530000000000
31
0.0
0
LINE
5
566
100
AcDbEntity
8
5-0
6
CONTINUOUS
62
7
100
AcDbLine
10
623.110000000000
20
480.530000000000
30
0.0
11
624.330000000000
21
480.840000000000
31
0.0
0
LINE
5
567
100
AcDbEntity
8
5-0
6
CONTINUOUS
62
7
100
AcDbLine
10
624.330000000000
20
480.840000000000
30
0.0
11
625.610000000000
21
481.120000000000
31
0.0
0
LINE
5
568
100
AcDbEntity
8
5-0
6
CONTINUOUS
62
7
100
AcDbLine
10
625.610000000000
20
481.120000000000
30
0.0
11
626.960000000000
21
481.380000000000
31
0.0
0
LINE
5
569
100
AcDbEntity
8
5-0
6
CONTINUOUS
62
7
100
AcDbLine
10
626.960000000000
20
481.380000000000
30
0.0
11
628.400000000000
21
481.620000000000
31
0.0
0
LINE
5
56a
100
AcDbEntity
8
5-0
6
CONTINUOUS
62
7
100
AcDbLine
10
628.400000000000
20
481.620000000000
30
0.0
11
629.940000000000
21
481.840000000000
31
0.0
0
LINE
5
56b
100
AcDbEntity
8
5-0
6
CONTINUOUS
62
7
100
AcDbLine
10
629.940000000000
20
481.840000000000
30
0.0
11
631.610000000000
21
482.050000000000
31
0.0
0
LINE
5
56c
100
AcDbEntity
8
5-0
6
CONTINUOUS
62
7
100
AcDbLine
10
631.610000000000
20
482.050000000000
30
0.0
11
633.020000000000
21
481.780000000000
31
0.0
0
LINE
5
56d
100
AcDbEntity
8
5-0
6
CONTINUOUS
62
7
100
AcDbLine
10
633.020000000000
20
481.780000000000
30
0.0
11
634.440000000000
21
481.430000000000
31
0.0
0
LINE
5
56e
100
AcDbEntity
8
5-0
6
CONTINUOUS
62
7
100
AcDbLine
10
634.440000000000
20
481.430000000000
30
0.0
11
635.840000000000
21
481.030000000000
31
0.0
0
LINE
5
56f
100
AcDbEntity
8
5-0
6
CONTINUOUS
62
7
100
AcDbLine
10
635.840000000000
20
481.030000000000
30
0.0
11
637.220000000000
21
480.570000000000
31
0.0
0
LINE
5
570
100
AcDbEntity
8
5-0
6
CONTINUOUS
62
7
100
AcDbLine
10
637.220000000000
20
480.570000000000
30
0.0
11
638.550000000000
21
480.080000000000
31
0.0
0
LINE
5
571
100
AcDbEntity
8
5-0
6
CONTINUOUS
62
7
100
AcDbLine
10
638.550000000000
20
480.080000000000
30
0.0
11
639.840000000000
21
479.560000000000
31
0.0
0
LINE
5
572
100
AcDbEntity
8
5-0
6
CONTINUOUS
62
7
100
AcDbLine
10
639.840000000000
20
479.560000000000
30
0.0
11
641.090000000000
21
479.030000000000
31
0.0
0
LINE
5
573
100
AcDbEntity
8
5-0
6
CONTINUOUS
62
7
100
AcDbLine
10
641.090000000000
20
479.030000000000
30
0.0
11
642.270000000000
21
478.480000000000
31
0.0
0
LINE
5
574
100
AcDbEntity
8
5-0
6
CONTINUOUS
62
7
100
AcDbLine
10
642.270000000000
20
478.480000000000
30
0.0
11
643.410000000000
21
477.930000000000
31
0.0
0
LINE
5
575
100
AcDbEntity
8
5-0
6
CONTINUOUS
62
7
100
AcDbLine
10
643.410000000000
20
477.930000000000
30
0.0
11
644.490000000000
21
477.370000000000
31
0.0
0
LINE
5
576
100
AcDbEntity
8
5-0
6
CONTINUOUS
62
7
100
AcDbLine
10
644.490000000000
20
477.370000000000
30
0.0
11
645.530000000000
21
476.820000000000
31
0.0
0
LINE
5
577
100
AcDbEntity
8
5-0
6
CONTINUOUS
62
7
100
AcDbLine
10
645.530000000000
20
476.820000000000
30
0.0
11
646.510000000000
21
476.260000000000
31
0.0
0
LINE
5
578
100
AcDbEntity
8
5-0
6
CONTINUOUS
62
7
100
AcDbLine
10
646.510000000000
20
476.260000000000
30
0.0
11
647.450000000000
21
475.700000000000
31
0.0
0
LINE
5
579
100
AcDbEntity
8
5-0
6
CONTINUOUS
62
7
100
AcDbLine
10
647.450000000000
20
475.700000000000
30
0.0
11
648.340000000000
21
475.140000000000
31
0.0
0
LINE
5
57a
100
AcDbEntity
8
5-0
6
CONTINUOUS
62
7
100
AcDbLine
10
648.340000000000
20
475.140000000000
30
0.0
11
649.200000000000
21
474.580000000000
31
0.0
0
LINE
5
57b
100
AcDbEntity
8
5-0
6
CONTINUOUS
62
7
100
AcDbLine
10
649.200000000000
20
474.580000000000
30
0.0
11
650.020000000000
21
474.020000000000
31
0.0
0
LINE
5
57c
100
AcDbEntity
8
5-0
6
CONTINUOUS
62
7
100
AcDbLine
10
650.020000000000
20
474.020000000000
30
0.0
11
650.810000000000
21
473.460000000000
31
0.0
0
LINE
5
57d
100
AcDbEntity
8
5-0
6
CONTINUOUS
62
7
100
AcDbLine
10
650.810000000000
20
473.460000000000
30
0.0
11
651.570000000000
21
472.900000000000
31
0.0
0
LINE
5
57e
100
AcDbEntity
8
5-0
6
CONTINUOUS
62
7
100
AcDbLine
10
651.570000000000
20
472.900000000000
30
0.0
11
652.310000000000
21
472.340000000000
31
0.0
0
LINE
5
57f
100
AcDbEntity
8
5-0
6
CONTINUOUS
62
7
100
AcDbLine
10
652.310000000000
20
472.340000000000
30
0.0
11
653.020000000000
21
471.770000000000
31
0.0
0
LINE
5
580
100
AcDbEntity
8
5-0
6
CONTINUOUS
62
7
100
AcDbLine
10
653.020000000000
20
471.770000000000
30
0.0
11
653.710000000000
21
471.210000000000
31
0.0
0
LINE
5
581
100
AcDbEntity
8
5-0
6
CONTINUOUS
62
7
100
AcDbLine
10
653.710000000000
20
471.210000000000
30
0.0
11
654.390000000000
21
470.650000000000
31
0.0
0
LINE
5
582
100
AcDbEntity
8
5-0
6
CONTINUOUS
62
7
100
AcDbLine
10
654.390000000000
20
470.650000000000
30
0.0
11
655.040000000000
21
470.080000000000
31
0.0
0
LINE
5
583
100
AcDbEntity
8
5-0
6
CONTINUOUS
62
7
100
AcDbLine
10
655.040000000000
20
470.080000000000
30
0.0
11
655.680000000000
21
469.520000000000
31
0.0
0
LINE
5
584
100
AcDbEntity
8
5-0
6
CONTINUOUS
62
7
100
AcDbLine
10
655.680000000000
20
469.520000000000
30
0.0
11
656.300000000000
21
468.950000000000
31
0.0
0
LINE
5
585
100
AcDbEntity
8
5-0
6
CONTINUOUS
62
7
100
AcDbLine
10
656.300000000000
20
468.950000000000
30
0.0
11
656.910000000000
21
468.390000000000
31
0.0
0
LINE
5
586
100
AcDbEntity
8
5-0
6
CONTINUOUS
62
7
100
AcDbLine
10
656.910000000000
20
468.390000000000
30
0.0
11
657.500000000000
21
467.840000000000
31
0.0
0
LINE
5
587
100
AcDbEntity
8
5-0
6
CONTINUOUS
62
7
100
AcDbLine
10
657.500000000000
20
467.840000000000
30
0.0
11
658.070000000000
21
467.290000000000
31
0.0
0
LINE
5
588
100
AcDbEntity
8
5-0
6
CONTINUOUS
62
7
100
AcDbLine
10
658.070000000000
20
467.290000000000
30
0.0
11
658.630000000000
21
466.750000000000
31
0.0
0
LINE
5
589
100
AcDbEntity
8
5-0
6
CONTINUOUS
62
7
100
AcDbLine
10
658.630000000000
20
466.750000000000
30
0.0
11
659.180000000000
21
466.220000000000
31
0.0
0
LINE
5
58a
100
AcDbEntity
8
5-0
6
CONTINUOUS
62
7
100
AcDbLine
10
659.180000000000
20
466.220000000000
30
0.0
11
659.710000000000
21
465.700000000000
31
0.0
0
LINE
5
58b
100
AcDbEntity
8
5-0
6
CONTINUOUS
62
7
100
AcDbLine
10
659.710000000000
20
465.700000000000
30
0.0
11
660.220000000000
21
465.190000000000
31
0.0
0
LINE
5
58c
100
AcDbEntity
8
5-0
6
CONTINUOUS
62
7
100
AcDbLine
10
660.220000000000
20
465.190000000000
30
0.0
11
660.710000000000
21
464.690000000000
31
0.0
0
LINE
5
58d
100
AcDbEntity
8
5-0
6
CONTINUOUS
62
7
100
AcDbLine
10
660.710000000000
20
464.690000000000
30
0.0
11
661.190000000000
21
464.210000000000
31
0.0
0
LINE
5
58e
100
AcDbEntity
8
5-0
6
CONTINUOUS
62
7
100
AcDbLine
10
661.190000000000
20
464.210000000000
30
0.0
11
661.660000000000
21
463.740000000000
31
0.0
0
LINE
5
58f
100
AcDbEntity
8
5-0
6
CONTINUOUS
62
7
100
AcDbLine
10
661.660000000000
20
463.740000000000
30
0.0
11
662.100000000000
21
463.290000000000
31
0.0
0
LINE
5
590
100
AcDbEntity
8
5-0
6
CONTINUOUS
62
7
100
AcDbLine
10
662.100000000000
20
463.290000000000
30
0.0
11
662.530000000000
21
462.860000000000
31
0.0
0
LINE
5
591
100
AcDbEntity
8
5-0
6
CONTINUOUS
62
7
100
AcDbLine
10
662.530000000000
20
462.860000000000
30
0.0
11
662.950000000000
21
462.450000000000
31
0.0
0
LINE
5
592
100
AcDbEntity
8
5-0
6
CONTINUOUS
62
7
100
AcDbLine
10
662.950000000000
20
462.450000000000
30
0.0
11
663.350000000000
21
462.050000000000
31
0.0
0
LINE
5
593
100
AcDbEntity
8
5-0
6
CONTINUOUS
62
7
100
AcDbLine
10
663.350000000000
20
462.050000000000
30
0.0
11
663.730000000000
21
461.670000000000
31
0.0
0
LINE
5
594
100
AcDbEntity
8
5-0
6
CONTINUOUS
62
7
100
AcDbLine
10
663.730000000000
20
461.670000000000
30
0.0
11
664.100000000000
21
461.310000000000
31
0.0
0
LINE
5
595
100
AcDbEntity
8
5-0
6
CONTINUOUS
62
7
100
AcDbLine
10
664.100000000000
20
461.310000000000
30
0.0
11
664.460000000000
21
460.970000000000
31
0.0
0
LINE
5
596
100
AcDbEntity
8
5-0
6
CONTINUOUS
62
7
100
AcDbLine
10
664.460000000000
20
460.970000000000
30
0.0
11
664.800000000000
21
460.640000000000
31
0.0
0
LINE
5
597
100
AcDbEntity
8
5-0
6
CONTINUOUS
62
7
100
AcDbLine
10
664.800000000000
20
460.640000000000
30
0.0
11
665.130000000000
21
460.330000000000
31
0.0
0
LINE
5
598
100
AcDbEntity
8
5-0
6
CONTINUOUS
62
7
100
AcDbLine
10
665.130000000000
20
460.330000000000
30
0.0
11
665.460000000000
21
460.040000000000
31
0.0
0
LINE
5
599
100
AcDbEntity
8
5-0
6
CONTINUOUS
62
7
100
AcDbLine
10
665.460000000000
20
460.040000000000
30
0.0
11
665.770000000000
21
459.760000000000
31
0.0
0
LINE
5
59a
100
AcDbEntity
8
5-0
6
CONTINUOUS
62
7
100
AcDbLine
10
665.770000000000
20
459.760000000000
30
0.0
11
666.080000000000
21
459.500000000000
31
0.0
0
LINE
5
59b
100
AcDbEntity
8
5-0
6
CONTINUOUS
62
7
100
AcDbLine
10
666.080000000000
20
459.500000000000
30
0.0
11
666.380000000000
21
459.240000000000
31
0.0
0
LINE
5
59c
100
AcDbEntity
8
5-0
6
CONTINUOUS
62
7
100
AcDbLine
10
666.380000000000
20
459.240000000000
30
0.0
11
666.680000000000
21
459.000000000000
31
0.0
0
LINE
5
59d
100
AcDbEntity
8
5-0
6
CONTINUOUS
62
7
100
AcDbLine
10
666.680000000000
20
459.000000000000
30
0.0
11
666.970000000000
21
458.770000000000
31
0.0
0
LINE
5
59e
100
AcDbEntity
8
5-0
6
CONTINUOUS
62
7
100
AcDbLine
10
666.970000000000
20
458.770000000000
30
0.0
11
667.270000000000
21
458.550000000000
31
0.0
0
LINE
5
59f
100
AcDbEntity
8
5-0
6
CONTINUOUS
62
7
100
AcDbLine
10
667.270000000000
20
458.550000000000
30
0.0
11
667.560000000000
21
458.340000000000
31
0.0
0
LINE
5
5a0
100
AcDbEntity
8
5-0
6
CONTINUOUS
62
7
100
AcDbLine
10
667.560000000000
20
458.340000000000
30
0.0
11
667.860000000000
21
458.130000000000
31
0.0
0
LINE
5
5a1
100
AcDbEntity
8
5-0
6
CONTINUOUS
62
7
100
AcDbLine
10
667.860000000000
20
458.130000000000
30
0.0
11
668.150000000000
21
457.930000000000
31
0.0
0
LINE
5
5a2
100
AcDbEntity
8
5-0
6
CONTINUOUS
62
7
100
AcDbLine
10
668.150000000000
20
457.930000000000
30
0.0
11
668.460000000000
21
457.740000000000
31
0.0
0
LINE
5
5a3
100
AcDbEntity
8
5-0
6
CONTINUOUS
62
7
100
AcDbLine
10
668.460000000000
20
457.740000000000
30
0.0
11
668.770000000000
21
457.550000000000
31
0.0
0
LINE
5
5a4
100
AcDbEntity
8
5-0
6
CONTINUOUS
62
7
100
AcDbLine
10
668.770000000000
20
457.550000000000
30
0.0
11
669.080000000000
21
457.370000000000
31
0.0
0
LINE
5
5a5
100
AcDbEntity
8
5-0
6
CONTINUOUS
62
7
100
AcDbLine
10
669.080000000000
20
457.370000000000
30
0.0
11
669.410000000000
21
457.190000000000
31
0.0
0
LINE
5
5a6
100
AcDbEntity
8
5-0
6
CONTINUOUS
62
7
100
AcDbLine
10
669.410000000000
20
457.190000000000
30
0.0
11
669.750000000000
21
457.010000000000
31
0.0
0
LINE
5
5a7
100
AcDbEntity
8
5-0
6
CONTINUOUS
62
7
100
AcDbLine
10
669.750000000000
20
457.010000000000
30
0.0
11
670.110000000000
21
456.830000000000
31
0.0
0
LINE
5
5a8
100
AcDbEntity
8
5-0
6
CONTINUOUS
62
7
100
AcDbLine
10
670.110000000000
20
456.830000000000
30
0.0
11
670.470000000000
21
456.660000000000
31
0.0
0
LINE
5
5a9
100
AcDbEntity
8
5-0
6
CONTINUOUS
62
7
100
AcDbLine
10
670.470000000000
20
456.660000000000
30
0.0
11
670.860000000000
21
456.490000000000
31
0.0
0
LINE
5
5aa
100
AcDbEntity
8
5-0
6
CONTINUOUS
62
7
100
AcDbLine
10
670.860000000000
20
456.490000000000
30
0.0
11
671.270000000000
21
456.320000000000
31
0.0
0
LINE
5
5ab
100
AcDbEntity
8
5-0
6
CONTINUOUS
62
7
100
AcDbLine
10
671.270000000000
20
456.320000000000
30
0.0
11
671.690000000000
21
456.150000000000
31
0.0
0
LINE
5
5ac
100
AcDbEntity
8
5-0
6
CONTINUOUS
62
7
100
AcDbLine
10
671.690000000000
20
456.150000000000
30
0.0
11
672.150000000000
21
455.980000000000
31
0.0
0
LINE
5
5ad
100
AcDbEntity
8
5-0
6
CONTINUOUS
62
7
100
AcDbLine
10
672.150000000000
20
455.980000000000
30
0.0
11
672.630000000000
21
455.810000000000
31
0.0
0
LINE
5
5ae
100
AcDbEntity
8
5-0
6
CONTINUOUS
62
7
100
AcDbLine
10
672.630000000000
20
455.810000000000
30
0.0
11
673.130000000000
21
455.650000000000
31
0.0
0
LINE
5
5af
100
AcDbEntity
8
5-0
6
CONTINUOUS
62
7
100
AcDbLine
10
673.130000000000
20
455.650000000000
30
0.0
11
673.680000000000
21
455.490000000000
31
0.0
0
LINE
5
5b0
100
AcDbEntity
8
5-0
6
CONTINUOUS
62
7
100
AcDbLine
10
673.680000000000
20
455.490000000000
30
0.0
11
674.250000000000
21
455.330000000000
31
0.0
0
LINE
5
5b1
100
AcDbEntity
8
5-0
6
CONTINUOUS
62
7
100
AcDbLine
10
674.250000000000
20
455.330000000000
30
0.0
11
674.870000000000
21
455.170000000000
31
0.0
0
LINE
5
5b2
100
AcDbEntity
8
5-0
6
CONTINUOUS
62
7
100
AcDbLine
10
674.870000000000
20
455.170000000000
30
0.0
11
675.530000000000
21
455.020000000000
31
0.0
0
LINE
5
5b3
100
AcDbEntity
8
5-0
6
CONTINUOUS
62
7
100
AcDbLine
10
675.530000000000
20
455.020000000000
30
0.0
11
676.240000000000
21
454.870000000000
31
0.0
0
LINE
5
5b4
100
AcDbEntity
8
5-0
6
CONTINUOUS
62
7
100
AcDbLine
10
676.240000000000
20
454.870000000000
30
0.0
11
677.000000000000
21
454.730000000000
31
0.0
0
LINE
5
5b5
100
AcDbEntity
8
5-0
6
CONTINUOUS
62
7
100
AcDbLine
10
677.000000000000
20
454.730000000000
30
0.0
11
677.820000000000
21
454.600000000000
31
0.0
0
LINE
5
5b6
100
AcDbEntity
8
5-0
6
CONTINUOUS
62
7
100
AcDbLine
10
677.820000000000
20
454.600000000000
30
0.0
11
678.700000000000
21
454.470000000000
31
0.0
0
LINE
5
5b7
100
AcDbEntity
8
5-0
6
CONTINUOUS
62
7
100
AcDbLine
10
678.700000000000
20
454.470000000000
30
0.0
11
679.660000000000
21
454.350000000000
31
0.0
0
LINE
5
5b8
100
AcDbEntity
8
5-0
6
CONTINUOUS
62
7
100
AcDbLine
10
679.660000000000
20
454.350000000000
30
0.0
11
680.710000000000
21
454.240000000000
31
0.0
0
LINE
5
5b9
100
AcDbEntity
8
5-0
6
CONTINUOUS
62
7
100
AcDbLine
10
680.710000000000
20
454.240000000000
30
0.0
11
681.860000000000
21
454.140000000000
31
0.0
0
LINE
5
5ba
100
AcDbEntity
8
5-0
6
CONTINUOUS
62
7
100
AcDbLine
10
681.860000000000
20
454.140000000000
30
0.0
11
683.110000000000
21
454.050000000000
31
0.0
0
LINE
5
5bb
100
AcDbEntity
8
5-0
6
CONTINUOUS
62
7
100
AcDbLine
10
577.730000000000
20
468.860000000000
30
0.0
11
578.850000000000
21
469.040000000000
31
0.0
0
LINE
5
5bc
100
AcDbEntity
8
5-0
6
CONTINUOUS
62
7
100
AcDbLine
10
578.850000000000
20
469.040000000000
30
0.0
11
579.660000000000
21
469.200000000000
31
0.0
0
LINE
5
5bd
100
AcDbEntity
8
5-0
6
CONTINUOUS
62
7
100
AcDbLine
10
579.660000000000
20
469.200000000000
30
0.0
11
580.350000000000
21
469.350000000000
31
0.0
0
LINE
5
5be
100
AcDbEntity
8
5-0
6
CONTINUOUS
62
7
100
AcDbLine
10
580.350000000000
20
469.350000000000
30
0.0
11
580.930000000000
21
469.500000000000
31
0.0
0
LINE
5
5bf
100
AcDbEntity
8
5-0
6
CONTINUOUS
62
7
100
AcDbLine
10
580.930000000000
20
469.500000000000
30
0.0
11
581.440000000000
21
469.660000000000
31
0.0
0
LINE
5
5c0
100
AcDbEntity
8
5-0
6
CONTINUOUS
62
7
100
AcDbLine
10
581.440000000000
20
469.660000000000
30
0.0
11
581.900000000000
21
469.830000000000
31
0.0
0
LINE
5
5c1
100
AcDbEntity
8
5-0
6
CONTINUOUS
62
7
100
AcDbLine
10
581.900000000000
20
469.830000000000
30
0.0
11
582.340000000000
21
470.010000000000
31
0.0
0
LINE
5
5c2
100
AcDbEntity
8
5-0
6
CONTINUOUS
62
7
100
AcDbLine
10
582.340000000000
20
470.010000000000
30
0.0
11
582.780000000000
21
470.210000000000
31
0.0
0
LINE
5
5c3
100
AcDbEntity
8
5-0
6
CONTINUOUS
62
7
100
AcDbLine
10
582.780000000000
20
470.210000000000
30
0.0
11
583.220000000000
21
470.440000000000
31
0.0
0
LINE
5
5c4
100
AcDbEntity
8
5-0
6
CONTINUOUS
62
7
100
AcDbLine
10
583.220000000000
20
470.440000000000
30
0.0
11
583.680000000000
21
470.700000000000
31
0.0
0
LINE
5
5c5
100
AcDbEntity
8
5-0
6
CONTINUOUS
62
7
100
AcDbLine
10
583.680000000000
20
470.700000000000
30
0.0
11
584.160000000000
21
471.010000000000
31
0.0
0
LINE
5
5c6
100
AcDbEntity
8
5-0
6
CONTINUOUS
62
7
100
AcDbLine
10
584.160000000000
20
471.010000000000
30
0.0
11
584.670000000000
21
471.360000000000
31
0.0
0
LINE
5
5c7
100
AcDbEntity
8
5-0
6
CONTINUOUS
62
7
100
AcDbLine
10
584.670000000000
20
471.360000000000
30
0.0
11
585.210000000000
21
471.760000000000
31
0.0
0
LINE
5
5c8
100
AcDbEntity
8
5-0
6
CONTINUOUS
62
7
100
AcDbLine
10
585.210000000000
20
471.760000000000
30
0.0
11
585.790000000000
21
472.210000000000
31
0.0
0
LINE
5
5c9
100
AcDbEntity
8
5-0
6
CONTINUOUS
62
7
100
AcDbLine
10
585.790000000000
20
472.210000000000
30
0.0
11
586.400000000000
21
472.710000000000
31
0.0
0
LINE
5
5ca
100
AcDbEntity
8
5-0
6
CONTINUOUS
62
7
100
AcDbLine
10
586.400000000000
20
472.710000000000
30
0.0
11
587.050000000000
21
473.270000000000
31
0.0
0
LINE
5
5cb
100
AcDbEntity
8
5-0
6
CONTINUOUS
62
7
100
AcDbLine
10
587.050000000000
20
473.270000000000
30
0.0
11
587.730000000000
21
473.890000000000
31
0.0
0
LINE
5
5cc
100
AcDbEntity
8
5-0
6
CONTINUOUS
62
7
100
AcDbLine
10
587.730000000000
20
473.890000000000
30
0.0
11
588.460000000000
21
474.560000000000
31
0.0
0
LINE
5
5cd
100
AcDbEntity
8
5-0
6
CONTINUOUS
62
7
100
AcDbLine
10
588.460000000000
20
474.560000000000
30
0.0
11
589.210000000000
21
475.270000000000
31
0.0
0
LINE
5
5ce
100
AcDbEntity
8
5-0
6
CONTINUOUS
62
7
100
AcDbLine
10
589.210000000000
20
475.270000000000
30
0.0
11
590.010000000000
21
476.040000000000
31
0.0
0
LINE
5
5cf
100
AcDbEntity
8
5-0
6
CONTINUOUS
62
7
100
AcDbLine
10
590.010000000000
20
476.040000000000
30
0.0
11
590.830000000000
21
476.830000000000
31
0.0
0
LINE
5
5d0
100
AcDbEntity
8
5-0
6
CONTINUOUS
62
7
100
AcDbLine
10
590.830000000000
20
476.830000000000
30
0.0
11
591.720000000000
21
477.680000000000
31
0.0
0
LINE
5
5d1
100
AcDbEntity
8
5-0
6
CONTINUOUS
62
7
100
AcDbLine
10
591.720000000000
20
477.680000000000
30
0.0
11
592.630000000000
21
478.560000000000
31
0.0
0
LINE
5
5d2
100
AcDbEntity
8
5-0
6
CONTINUOUS
62
7
100
AcDbLine
10
592.630000000000
20
478.560000000000
30
0.0
11
593.590000000000
21
479.470000000000
31
0.0
0
LINE
5
5d3
100
AcDbEntity
8
5-0
6
CONTINUOUS
62
7
100
AcDbLine
10
593.590000000000
20
479.470000000000
30
0.0
11
594.570000000000
21
480.390000000000
31
0.0
0
LINE
5
5d4
100
AcDbEntity
8
5-0
6
CONTINUOUS
62
7
100
AcDbLine
10
594.570000000000
20
480.390000000000
30
0.0
11
595.610000000000
21
481.340000000000
31
0.0
0
LINE
5
5d5
100
AcDbEntity
8
5-0
6
CONTINUOUS
62
7
100
AcDbLine
10
595.610000000000
20
481.340000000000
30
0.0
11
596.680000000000
21
482.290000000000
31
0.0
0
LINE
5
5d6
100
AcDbEntity
8
5-0
6
CONTINUOUS
62
7
100
AcDbLine
10
596.680000000000
20
482.290000000000
30
0.0
11
597.790000000000
21
483.250000000000
31
0.0
0
LINE
5
5d7
100
AcDbEntity
8
5-0
6
CONTINUOUS
62
7
100
AcDbLine
10
597.790000000000
20
483.250000000000
30
0.0
11
598.940000000000
21
484.210000000000
31
0.0
0
LINE
5
5d8
100
AcDbEntity
8
5-0
6
CONTINUOUS
62
7
100
AcDbLine
10
598.940000000000
20
484.210000000000
30
0.0
11
600.130000000000
21
485.160000000000
31
0.0
0
LINE
5
5d9
100
AcDbEntity
8
5-0
6
CONTINUOUS
62
7
100
AcDbLine
10
600.130000000000
20
485.160000000000
30
0.0
11
601.360000000000
21
486.100000000000
31
0.0
0
LINE
5
5da
100
AcDbEntity
8
5-0
6
CONTINUOUS
62
7
100
AcDbLine
10
601.360000000000
20
486.100000000000
30
0.0
11
602.630000000000
21
487.020000000000
31
0.0
0
LINE
5
5db
100
AcDbEntity
8
5-0
6
CONTINUOUS
62
7
100
AcDbLine
10
602.630000000000
20
487.020000000000
30
0.0
11
603.930000000000
21
487.930000000000
31
0.0
0
LINE
5
5dc
100
AcDbEntity
8
5-0
6
CONTINUOUS
62
7
100
AcDbLine
10
603.930000000000
20
487.930000000000
30
0.0
11
605.280000000000
21
488.810000000000
31
0.0
0
LINE
5
5dd
100
AcDbEntity
8
5-0
6
CONTINUOUS
62
7
100
AcDbLine
10
605.280000000000
20
488.810000000000
30
0.0
11
606.670000000000
21
489.660000000000
31
0.0
0
LINE
5
5de
100
AcDbEntity
8
5-0
6
CONTINUOUS
62
7
100
AcDbLine
10
606.670000000000
20
489.660000000000
30
0.0
11
608.100000000000
21
490.490000000000
31
0.0
0
LINE
5
5df
100
AcDbEntity
8
5-0
6
CONTINUOUS
62
7
100
AcDbLine
10
608.100000000000
20
490.490000000000
30
0.0
11
609.570000000000
21
491.270000000000
31
0.0
0
LINE
5
5e0
100
AcDbEntity
8
5-0
6
CONTINUOUS
62
7
100
AcDbLine
10
609.570000000000
20
491.270000000000
30
0.0
11
611.070000000000
21
492.010000000000
31
0.0
0
LINE
5
5e1
100
AcDbEntity
8
5-0
6
CONTINUOUS
62
7
100
AcDbLine
10
611.070000000000
20
492.010000000000
30
0.0
11
612.620000000000
21
492.720000000000
31
0.0
0
LINE
5
5e2
100
AcDbEntity
8
5-0
6
CONTINUOUS
62
7
100
AcDbLine
10
612.620000000000
20
492.720000000000
30
0.0
11
614.210000000000
21
493.370000000000
31
0.0
0
LINE
5
5e3
100
AcDbEntity
8
5-0
6
CONTINUOUS
62
7
100
AcDbLine
10
614.210000000000
20
493.370000000000
30
0.0
11
615.830000000000
21
493.970000000000
31
0.0
0
LINE
5
5e4
100
AcDbEntity
8
5-0
6
CONTINUOUS
62
7
100
AcDbLine
10
615.830000000000
20
493.970000000000
30
0.0
11
617.480000000000
21
494.510000000000
31
0.0
0
LINE
5
5e5
100
AcDbEntity
8
5-0
6
CONTINUOUS
62
7
100
AcDbLine
10
617.480000000000
20
494.510000000000
30
0.0
11
619.160000000000
21
495.000000000000
31
0.0
0
LINE
5
5e6
100
AcDbEntity
8
5-0
6
CONTINUOUS
62
7
100
AcDbLine
10
619.160000000000
20
495.000000000000
30
0.0
11
620.860000000000
21
495.430000000000
31
0.0
0
LINE
5
5e7
100
AcDbEntity
8
5-0
6
CONTINUOUS
62
7
100
AcDbLine
10
620.860000000000
20
495.430000000000
30
0.0
11
622.580000000000
21
495.810000000000
31
0.0
0
LINE
5
5e8
100
AcDbEntity
8
5-0
6
CONTINUOUS
62
7
100
AcDbLine
10
622.580000000000
20
495.810000000000
30
0.0
11
624.330000000000
21
496.150000000000
31
0.0
0
LINE
5
5e9
100
AcDbEntity
8
5-0
6
CONTINUOUS
62
7
100
AcDbLine
10
624.330000000000
20
496.150000000000
30
0.0
11
626.100000000000
21
496.440000000000
31
0.0
0
LINE
5
5ea
100
AcDbEntity
8
5-0
6
CONTINUOUS
62
7
100
AcDbLine
10
626.100000000000
20
496.440000000000
30
0.0
11
627.920000000000
21
496.700000000000
31
0.0
0
LINE
5
5eb
100
AcDbEntity
8
5-0
6
CONTINUOUS
62
7
100
AcDbLine
10
627.920000000000
20
496.700000000000
30
0.0
11
629.710000000000
21
496.930000000000
31
0.0
0
LINE
5
5ec
100
AcDbEntity
8
5-0
6
CONTINUOUS
62
7
100
AcDbLine
10
634.440000000000
20
496.790000000000
30
0.0
11
636.230000000000
21
496.440000000000
31
0.0
0
LINE
5
5ed
100
AcDbEntity
8
5-0
6
CONTINUOUS
62
7
100
AcDbLine
10
636.230000000000
20
496.440000000000
30
0.0
11
638.340000000000
21
495.920000000000
31
0.0
0
LINE
5
5ee
100
AcDbEntity
8
5-0
6
CONTINUOUS
62
7
100
AcDbLine
10
638.340000000000
20
495.920000000000
30
0.0
11
640.310000000000
21
495.350000000000
31
0.0
0
LINE
5
5ef
100
AcDbEntity
8
5-0
6
CONTINUOUS
62
7
100
AcDbLine
10
640.310000000000
20
495.350000000000
30
0.0
11
642.170000000000
21
494.730000000000
31
0.0
0
LINE
5
5f0
100
AcDbEntity
8
5-0
6
CONTINUOUS
62
7
100
AcDbLine
10
642.170000000000
20
494.730000000000
30
0.0
11
643.920000000000
21
494.090000000000
31
0.0
0
LINE
5
5f1
100
AcDbEntity
8
5-0
6
CONTINUOUS
62
7
100
AcDbLine
10
643.920000000000
20
494.090000000000
30
0.0
11
645.590000000000
21
493.420000000000
31
0.0
0
LINE
5
5f2
100
AcDbEntity
8
5-0
6
CONTINUOUS
62
7
100
AcDbLine
10
645.590000000000
20
493.420000000000
30
0.0
11
647.170000000000
21
492.740000000000
31
0.0
0
LINE
5
5f3
100
AcDbEntity
8
5-0
6
CONTINUOUS
62
7
100
AcDbLine
10
647.170000000000
20
492.740000000000
30
0.0
11
648.680000000000
21
492.050000000000
31
0.0
0
LINE
5
5f4
100
AcDbEntity
8
5-0
6
CONTINUOUS
62
7
100
AcDbLine
10
648.680000000000
20
492.050000000000
30
0.0
11
650.120000000000
21
491.350000000000
31
0.0
0
LINE
5
5f5
100
AcDbEntity
8
5-0
6
CONTINUOUS
62
7
100
AcDbLine
10
650.120000000000
20
491.350000000000
30
0.0
11
651.490000000000
21
490.640000000000
31
0.0
0
LINE
5
5f6
100
AcDbEntity
8
5-0
6
CONTINUOUS
62
7
100
AcDbLine
10
651.490000000000
20
490.640000000000
30
0.0
11
652.800000000000
21
489.930000000000
31
0.0
0
LINE
5
5f7
100
AcDbEntity
8
5-0
6
CONTINUOUS
62
7
100
AcDbLine
10
652.800000000000
20
489.930000000000
30
0.0
11
654.060000000000
21
489.220000000000
31
0.0
0
LINE
5
5f8
100
AcDbEntity
8
5-0
6
CONTINUOUS
62
7
100
AcDbLine
10
654.060000000000
20
489.220000000000
30
0.0
11
655.260000000000
21
488.500000000000
31
0.0
0
LINE
5
5f9
100
AcDbEntity
8
5-0
6
CONTINUOUS
62
7
100
AcDbLine
10
655.260000000000
20
488.500000000000
30
0.0
11
656.410000000000
21
487.780000000000
31
0.0
0
LINE
5
5fa
100
AcDbEntity
8
5-0
6
CONTINUOUS
62
7
100
AcDbLine
10
656.410000000000
20
487.780000000000
30
0.0
11
657.520000000000
21
487.060000000000
31
0.0
0
LINE
5
5fb
100
AcDbEntity
8
5-0
6
CONTINUOUS
62
7
100
AcDbLine
10
657.520000000000
20
487.060000000000
30
0.0
11
658.580000000000
21
486.340000000000
31
0.0
0
LINE
5
5fc
100
AcDbEntity
8
5-0
6
CONTINUOUS
62
7
100
AcDbLine
10
658.580000000000
20
486.340000000000
30
0.0
11
659.590000000000
21
485.620000000000
31
0.0
0
LINE
5
5fd
100
AcDbEntity
8
5-0
6
CONTINUOUS
62
7
100
AcDbLine
10
659.590000000000
20
485.620000000000
30
0.0
11
660.570000000000
21
484.900000000000
31
0.0
0
LINE
5
5fe
100
AcDbEntity
8
5-0
6
CONTINUOUS
62
7
100
AcDbLine
10
660.570000000000
20
484.900000000000
30
0.0
11
661.510000000000
21
484.180000000000
31
0.0
0
LINE
5
5ff
100
AcDbEntity
8
5-0
6
CONTINUOUS
62
7
100
AcDbLine
10
661.510000000000
20
484.180000000000
30
0.0
11
662.410000000000
21
483.470000000000
31
0.0
0
LINE
5
600
100
AcDbEntity
8
5-0
6
CONTINUOUS
62
7
100
AcDbLine
10
662.410000000000
20
483.470000000000
30
0.0
11
663.280000000000
21
482.760000000000
31
0.0
0
LINE
5
601
100
AcDbEntity
8
5-0
6
CONTINUOUS
62
7
100
AcDbLine
10
663.280000000000
20
482.760000000000
30
0.0
11
664.110000000000
21
482.070000000000
31
0.0
0
LINE
5
602
100
AcDbEntity
8
5-0
6
CONTINUOUS
62
7
100
AcDbLine
10
664.110000000000
20
482.070000000000
30
0.0
11
664.910000000000
21
481.380000000000
31
0.0
0
LINE
5
603
100
AcDbEntity
8
5-0
6
CONTINUOUS
62
7
100
AcDbLine
10
664.910000000000
20
481.380000000000
30
0.0
11
665.680000000000
21
480.700000000000
31
0.0
0
LINE
5
604
100
AcDbEntity
8
5-0
6
CONTINUOUS
62
7
100
AcDbLine
10
665.680000000000
20
480.700000000000
30
0.0
11
666.420000000000
21
480.030000000000
31
0.0
0
LINE
5
605
100
AcDbEntity
8
5-0
6
CONTINUOUS
62
7
100
AcDbLine
10
666.420000000000
20
480.030000000000
30
0.0
11
667.120000000000
21
479.380000000000
31
0.0
0
LINE
5
606
100
AcDbEntity
8
5-0
6
CONTINUOUS
62
7
100
AcDbLine
10
667.120000000000
20
479.380000000000
30
0.0
11
667.810000000000
21
478.740000000000
31
0.0
0
LINE
5
607
100
AcDbEntity
8
5-0
6
CONTINUOUS
62
7
100
AcDbLine
10
667.810000000000
20
478.740000000000
30
0.0
11
668.460000000000
21
478.110000000000
31
0.0
0
LINE
5
608
100
AcDbEntity
8
5-0
6
CONTINUOUS
62
7
100
AcDbLine
10
668.460000000000
20
478.110000000000
30
0.0
11
669.090000000000
21
477.500000000000
31
0.0
0
LINE
5
609
100
AcDbEntity
8
5-0
6
CONTINUOUS
62
7
100
AcDbLine
10
669.090000000000
20
477.500000000000
30
0.0
11
669.690000000000
21
476.920000000000
31
0.0
0
LINE
5
60a
100
AcDbEntity
8
5-0
6
CONTINUOUS
62
7
100
AcDbLine
10
669.690000000000
20
476.920000000000
30
0.0
11
670.270000000000
21
476.350000000000
31
0.0
0
LINE
5
60b
100
AcDbEntity
8
5-0
6
CONTINUOUS
62
7
100
AcDbLine
10
670.270000000000
20
476.350000000000
30
0.0
11
670.800000000000
21
475.820000000000
31
0.0
0
LINE
5
60c
100
AcDbEntity
8
5-0
6
CONTINUOUS
62
7
100
AcDbLine
10
670.800000000000
20
475.820000000000
30
0.0
11
671.340000000000
21
475.280000000000
31
0.0
0
LINE
5
60d
100
AcDbEntity
8
5-0
6
CONTINUOUS
62
7
100
AcDbLine
10
671.340000000000
20
475.280000000000
30
0.0
11
671.840000000000
21
474.770000000000
31
0.0
0
LINE
5
60e
100
AcDbEntity
8
5-0
6
CONTINUOUS
62
7
100
AcDbLine
10
671.840000000000
20
474.770000000000
30
0.0
11
672.750000000000
21
473.860000000000
31
0.0
0
LINE
5
60f
100
AcDbEntity
8
5-0
6
CONTINUOUS
62
7
100
AcDbLine
10
672.750000000000
20
473.860000000000
30
0.0
11
673.150000000000
21
473.460000000000
31
0.0
0
LINE
5
610
100
AcDbEntity
8
5-0
6
CONTINUOUS
62
7
100
AcDbLine
10
673.150000000000
20
473.460000000000
30
0.0
11
673.540000000000
21
473.060000000000
31
0.0
0
LINE
5
611
100
AcDbEntity
8
5-0
6
CONTINUOUS
62
7
100
AcDbLine
10
673.540000000000
20
473.060000000000
30
0.0
11
673.900000000000
21
472.710000000000
31
0.0
0
LINE
5
612
100
AcDbEntity
8
5-0
6
CONTINUOUS
62
7
100
AcDbLine
10
673.900000000000
20
472.710000000000
30
0.0
11
674.230000000000
21
472.380000000000
31
0.0
0
LINE
5
613
100
AcDbEntity
8
5-0
6
CONTINUOUS
62
7
100
AcDbLine
10
674.230000000000
20
472.380000000000
30
0.0
11
674.530000000000
21
472.090000000000
31
0.0
0
LINE
5
614
100
AcDbEntity
8
5-0
6
CONTINUOUS
62
7
100
AcDbLine
10
674.530000000000
20
472.090000000000
30
0.0
11
674.810000000000
21
471.820000000000
31
0.0
0
LINE
5
615
100
AcDbEntity
8
5-0
6
CONTINUOUS
62
7
100
AcDbLine
10
674.810000000000
20
471.820000000000
30
0.0
11
675.060000000000
21
471.590000000000
31
0.0
0
LINE
5
616
100
AcDbEntity
8
5-0
6
CONTINUOUS
62
7
100
AcDbLine
10
675.060000000000
20
471.590000000000
30
0.0
11
675.280000000000
21
471.380000000000
31
0.0
0
LINE
5
617
100
AcDbEntity
8
5-0
6
CONTINUOUS
62
7
100
AcDbLine
10
675.280000000000
20
471.380000000000
30
0.0
11
675.470000000000
21
471.210000000000
31
0.0
0
LINE
5
618
100
AcDbEntity
8
5-0
6
CONTINUOUS
62
7
100
AcDbLine
10
675.470000000000
20
471.210000000000
30
0.0
11
675.650000000000
21
471.050000000000
31
0.0
0
LINE
5
619
100
AcDbEntity
8
5-0
6
CONTINUOUS
62
7
100
AcDbLine
10
675.650000000000
20
471.050000000000
30
0.0
11
675.800000000000
21
470.920000000000
31
0.0
0
LINE
5
61a
100
AcDbEntity
8
5-0
6
CONTINUOUS
62
7
100
AcDbLine
10
675.800000000000
20
470.920000000000
30
0.0
11
675.920000000000
21
470.820000000000
31
0.0
0
LINE
5
61b
100
AcDbEntity
8
5-0
6
CONTINUOUS
62
7
100
AcDbLine
10
675.920000000000
20
470.820000000000
30
0.0
11
676.020000000000
21
470.740000000000
31
0.0
0
LINE
5
61c
100
AcDbEntity
8
5-0
6
CONTINUOUS
62
7
100
AcDbLine
10
676.020000000000
20
470.740000000000
30
0.0
11
676.110000000000
21
470.670000000000
31
0.0
0
LINE
5
61d
100
AcDbEntity
8
5-0
6
CONTINUOUS
62
7
100
AcDbLine
10
676.110000000000
20
470.670000000000
30
0.0
11
676.180000000000
21
470.610000000000
31
0.0
0
LINE
5
61e
100
AcDbEntity
8
5-0
6
CONTINUOUS
62
7
100
AcDbLine
10
676.180000000000
20
470.610000000000
30
0.0
11
676.250000000000
21
470.570000000000
31
0.0
0
LINE
5
61f
100
AcDbEntity
8
5-0
6
CONTINUOUS
62
7
100
AcDbLine
10
676.250000000000
20
470.570000000000
30
0.0
11
676.300000000000
21
470.530000000000
31
0.0
0
LINE
5
620
100
AcDbEntity
8
5-0
6
CONTINUOUS
62
7
100
AcDbLine
10
676.300000000000
20
470.530000000000
30
0.0
11
676.340000000000
21
470.500000000000
31
0.0
0
LINE
5
621
100
AcDbEntity
8
5-0
6
CONTINUOUS
62
7
100
AcDbLine
10
676.340000000000
20
470.500000000000
30
0.0
11
676.390000000000
21
470.470000000000
31
0.0
0
LINE
5
622
100
AcDbEntity
8
5-0
6
CONTINUOUS
62
7
100
AcDbLine
10
676.390000000000
20
470.470000000000
30
0.0
11
676.430000000000
21
470.450000000000
31
0.0
0
LINE
5
623
100
AcDbEntity
8
5-0
6
CONTINUOUS
62
7
100
AcDbLine
10
676.430000000000
20
470.450000000000
30
0.0
11
676.480000000000
21
470.420000000000
31
0.0
0
LINE
5
624
100
AcDbEntity
8
5-0
6
CONTINUOUS
62
7
100
AcDbLine
10
676.480000000000
20
470.420000000000
30
0.0
11
676.530000000000
21
470.390000000000
31
0.0
0
LINE
5
625
100
AcDbEntity
8
5-0
6
CONTINUOUS
62
7
100
AcDbLine
10
676.530000000000
20
470.390000000000
30
0.0
11
676.580000000000
21
470.360000000000
31
0.0
0
LINE
5
626
100
AcDbEntity
8
5-0
6
CONTINUOUS
62
7
100
AcDbLine
10
676.580000000000
20
470.360000000000
30
0.0
11
676.650000000000
21
470.330000000000
31
0.0
0
LINE
5
627
100
AcDbEntity
8
5-0
6
CONTINUOUS
62
7
100
AcDbLine
10
676.650000000000
20
470.330000000000
30
0.0
11
676.730000000000
21
470.290000000000
31
0.0
0
LINE
5
628
100
AcDbEntity
8
5-0
6
CONTINUOUS
62
7
100
AcDbLine
10
676.730000000000
20
470.290000000000
30
0.0
11
676.820000000000
21
470.250000000000
31
0.0
0
LINE
5
629
100
AcDbEntity
8
5-0
6
CONTINUOUS
62
7
100
AcDbLine
10
676.820000000000
20
470.250000000000
30
0.0
11
676.930000000000
21
470.210000000000
31
0.0
0
LINE
5
62a
100
AcDbEntity
8
5-0
6
CONTINUOUS
62
7
100
AcDbLine
10
676.930000000000
20
470.210000000000
30
0.0
11
677.060000000000
21
470.150000000000
31
0.0
0
LINE
5
62b
100
AcDbEntity
8
5-0
6
CONTINUOUS
62
7
100
AcDbLine
10
677.060000000000
20
470.150000000000
30
0.0
11
677.210000000000
21
470.100000000000
31
0.0
0
LINE
5
62c
100
AcDbEntity
8
5-0
6
CONTINUOUS
62
7
100
AcDbLine
10
677.210000000000
20
470.100000000000
30
0.0
11
677.380000000000
21
470.040000000000
31
0.0
0
LINE
5
62d
100
AcDbEntity
8
5-0
6
CONTINUOUS
62
7
100
AcDbLine
10
677.380000000000
20
470.040000000000
30
0.0
11
677.580000000000
21
469.980000000000
31
0.0
0
LINE
5
62e
100
AcDbEntity
8
5-0
6
CONTINUOUS
62
7
100
AcDbLine
10
677.580000000000
20
469.980000000000
30
0.0
11
677.810000000000
21
469.910000000000
31
0.0
0
LINE
5
62f
100
AcDbEntity
8
5-0
6
CONTINUOUS
62
7
100
AcDbLine
10
677.810000000000
20
469.910000000000
30
0.0
11
678.080000000000
21
469.830000000000
31
0.0
0
LINE
5
630
100
AcDbEntity
8
5-0
6
CONTINUOUS
62
7
100
AcDbLine
10
678.080000000000
20
469.830000000000
30
0.0
11
678.380000000000
21
469.760000000000
31
0.0
0
LINE
5
631
100
AcDbEntity
8
5-0
6
CONTINUOUS
62
7
100
AcDbLine
10
678.380000000000
20
469.760000000000
30
0.0
11
678.730000000000
21
469.680000000000
31
0.0
0
LINE
5
632
100
AcDbEntity
8
5-0
6
CONTINUOUS
62
7
100
AcDbLine
10
678.730000000000
20
469.680000000000
30
0.0
11
679.130000000000
21
469.590000000000
31
0.0
0
LINE
5
633
100
AcDbEntity
8
5-0
6
CONTINUOUS
62
7
100
AcDbLine
10
679.130000000000
20
469.590000000000
30
0.0
11
679.590000000000
21
469.510000000000
31
0.0
0
LINE
5
634
100
AcDbEntity
8
5-0
6
CONTINUOUS
62
7
100
AcDbLine
10
679.590000000000
20
469.510000000000
30
0.0
11
680.100000000000
21
469.420000000000
31
0.0
0
LINE
5
635
100
AcDbEntity
8
5-0
6
CONTINUOUS
62
7
100
AcDbLine
10
680.100000000000
20
469.420000000000
30
0.0
11
680.700000000000
21
469.340000000000
31
0.0
0
LINE
5
636
100
AcDbEntity
8
5-0
6
CONTINUOUS
62
7
100
AcDbLine
10
680.700000000000
20
469.340000000000
30
0.0
11
681.370000000000
21
469.250000000000
31
0.0
0
LINE
5
637
100
AcDbEntity
8
5-0
6
CONTINUOUS
62
7
100
AcDbLine
10
681.370000000000
20
469.250000000000
30
0.0
11
682.150000000000
21
469.170000000000
31
0.0
0
LINE
5
638
100
AcDbEntity
8
5-0
6
CONTINUOUS
62
7
100
AcDbLine
10
682.150000000000
20
469.170000000000
30
0.0
11
683.030000000000
21
469.100000000000
31
0.0
0
LINE
5
639
100
AcDbEntity
8
5-0
6
CONTINUOUS
62
7
100
AcDbLine
10
683.030000000000
20
469.100000000000
30
0.0
11
684.160000000000
21
469.020000000000
31
0.0
0
LINE
5
63a
100
AcDbEntity
8
5-0
6
CONTINUOUS
62
7
100
AcDbLine
10
629.710000000000
20
496.930000000000
30
0.0
11
629.980000000000
21
496.950000000000
31
0.0
0
LINE
5
63b
100
AcDbEntity
8
5-0
6
CONTINUOUS
62
7
100
AcDbLine
10
629.980000000000
20
496.950000000000
30
0.0
11
630.240000000000
21
496.970000000000
31
0.0
0
LINE
5
63c
100
AcDbEntity
8
5-0
6
CONTINUOUS
62
7
100
AcDbLine
10
630.240000000000
20
496.970000000000
30
0.0
11
630.500000000000
21
496.980000000000
31
0.0
0
LINE
5
63d
100
AcDbEntity
8
5-0
6
CONTINUOUS
62
7
100
AcDbLine
10
630.500000000000
20
496.980000000000
30
0.0
11
630.740000000000
21
496.990000000000
31
0.0
0
LINE
5
63e
100
AcDbEntity
8
5-0
6
CONTINUOUS
62
7
100
AcDbLine
10
630.740000000000
20
496.990000000000
30
0.0
11
630.980000000000
21
497.000000000000
31
0.0
0
LINE
5
63f
100
AcDbEntity
8
5-0
6
CONTINUOUS
62
7
100
AcDbLine
10
630.980000000000
20
497.000000000000
30
0.0
11
631.220000000000
21
497.010000000000
31
0.0
0
LINE
5
640
100
AcDbEntity
8
5-0
6
CONTINUOUS
62
7
100
AcDbLine
10
631.220000000000
20
497.010000000000
30
0.0
11
631.450000000000
21
497.010000000000
31
0.0
0
LINE
5
641
100
AcDbEntity
8
5-0
6
CONTINUOUS
62
7
100
AcDbLine
10
631.450000000000
20
497.010000000000
30
0.0
11
631.680000000000
21
497.010000000000
31
0.0
0
LINE
5
642
100
AcDbEntity
8
5-0
6
CONTINUOUS
62
7
100
AcDbLine
10
631.680000000000
20
497.010000000000
30
0.0
11
631.900000000000
21
497.010000000000
31
0.0
0
LINE
5
643
100
AcDbEntity
8
5-0
6
CONTINUOUS
62
7
100
AcDbLine
10
631.900000000000
20
497.010000000000
30
0.0
11
632.120000000000
21
497.010000000000
31
0.0
0
LINE
5
644
100
AcDbEntity
8
5-0
6
CONTINUOUS
62
7
100
AcDbLine
10
632.120000000000
20
497.010000000000
30
0.0
11
632.330000000000
21
497.010000000000
31
0.0
0
LINE
5
645
100
AcDbEntity
8
5-0
6
CONTINUOUS
62
7
100
AcDbLine
10
632.330000000000
20
497.010000000000
30
0.0
11
632.540000000000
21
497.000000000000
31
0.0
0
LINE
5
646
100
AcDbEntity
8
5-0
6
CONTINUOUS
62
7
100
AcDbLine
10
632.540000000000
20
497.000000000000
30
0.0
11
632.750000000000
21
496.990000000000
31
0.0
0
LINE
5
647
100
AcDbEntity
8
5-0
6
CONTINUOUS
62
7
100
AcDbLine
10
632.750000000000
20
496.990000000000
30
0.0
11
632.940000000000
21
496.980000000000
31
0.0
0
LINE
5
648
100
AcDbEntity
8
5-0
6
CONTINUOUS
62
7
100
AcDbLine
10
632.940000000000
20
496.980000000000
30
0.0
11
633.130000000000
21
496.970000000000
31
0.0
0
LINE
5
649
100
AcDbEntity
8
5-0
6
CONTINUOUS
62
7
100
AcDbLine
10
633.130000000000
20
496.970000000000
30
0.0
11
633.310000000000
21
496.960000000000
31
0.0
0
LINE
5
64a
100
AcDbEntity
8
5-0
6
CONTINUOUS
62
7
100
AcDbLine
10
633.310000000000
20
496.960000000000
30
0.0
11
633.490000000000
21
496.950000000000
31
0.0
0
LINE
5
64b
100
AcDbEntity
8
5-0
6
CONTINUOUS
62
7
100
AcDbLine
10
633.490000000000
20
496.950000000000
30
0.0
11
633.650000000000
21
496.930000000000
31
0.0
0
LINE
5
64c
100
AcDbEntity
8
5-0
6
CONTINUOUS
62
7
100
AcDbLine
10
633.650000000000
20
496.930000000000
30
0.0
11
633.800000000000
21
496.910000000000
31
0.0
0
LINE
5
64d
100
AcDbEntity
8
5-0
6
CONTINUOUS
62
7
100
AcDbLine
10
633.800000000000
20
496.910000000000
30
0.0
11
633.950000000000
21
496.890000000000
31
0.0
0
LINE
5
64e
100
AcDbEntity
8
5-0
6
CONTINUOUS
62
7
100
AcDbLine
10
633.950000000000
20
496.890000000000
30
0.0
11
634.080000000000
21
496.870000000000
31
0.0
0
LINE
5
64f
100
AcDbEntity
8
5-0
6
CONTINUOUS
62
7
100
AcDbLine
10
634.080000000000
20
496.870000000000
30
0.0
11
634.210000000000
21
496.840000000000
31
0.0
0
LINE
5
650
100
AcDbEntity
8
5-0
6
CONTINUOUS
62
7
100
AcDbLine
10
634.210000000000
20
496.840000000000
30
0.0
11
634.330000000000
21
496.820000000000
31
0.0
0
LINE
5
651
100
AcDbEntity
8
5-0
6
CONTINUOUS
62
7
100
AcDbLine
10
634.330000000000
20
496.820000000000
30
0.0
11
634.440000000000
21
496.790000000000
31
0.0
0
LINE
5
652
100
AcDbEntity
8
5-0
6
CONTINUOUS
62
7
100
AcDbLine
10
537.850000000000
20
473.450000000000
30
0.0
11
538.370000000000
21
473.200000000000
31
0.0
0
LINE
5
653
100
AcDbEntity
8
5-0
6
CONTINUOUS
62
7
100
AcDbLine
10
538.370000000000
20
473.200000000000
30
0.0
11
538.780000000000
21
472.990000000000
31
0.0
0
LINE
5
654
100
AcDbEntity
8
5-0
6
CONTINUOUS
62
7
100
AcDbLine
10
538.780000000000
20
472.990000000000
30
0.0
11
539.180000000000
21
472.790000000000
31
0.0
0
LINE
5
655
100
AcDbEntity
8
5-0
6
CONTINUOUS
62
7
100
AcDbLine
10
539.180000000000
20
472.790000000000
30
0.0
11
539.530000000000
21
472.620000000000
31
0.0
0
LINE
5
656
100
AcDbEntity
8
5-0
6
CONTINUOUS
62
7
100
AcDbLine
10
539.530000000000
20
472.620000000000
30
0.0
11
539.860000000000
21
472.460000000000
31
0.0
0
LINE
5
657
100
AcDbEntity
8
5-0
6
CONTINUOUS
62
7
100
AcDbLine
10
539.860000000000
20
472.460000000000
30
0.0
11
540.160000000000
21
472.320000000000
31
0.0
0
LINE
5
658
100
AcDbEntity
8
5-0
6
CONTINUOUS
62
7
100
AcDbLine
10
540.160000000000
20
472.320000000000
30
0.0
11
540.420000000000
21
472.200000000000
31
0.0
0
LINE
5
659
100
AcDbEntity
8
5-0
6
CONTINUOUS
62
7
100
AcDbLine
10
540.420000000000
20
472.200000000000
30
0.0
11
540.680000000000
21
472.080000000000
31
0.0
0
LINE
5
65a
100
AcDbEntity
8
5-0
6
CONTINUOUS
62
7
100
AcDbLine
10
540.680000000000
20
472.080000000000
30
0.0
11
540.910000000000
21
471.970000000000
31
0.0
0
LINE
5
65b
100
AcDbEntity
8
5-0
6
CONTINUOUS
62
7
100
AcDbLine
10
540.910000000000
20
471.970000000000
30
0.0
11
541.120000000000
21
471.880000000000
31
0.0
0
LINE
5
65c
100
AcDbEntity
8
5-0
6
CONTINUOUS
62
7
100
AcDbLine
10
541.120000000000
20
471.880000000000
30
0.0
11
541.310000000000
21
471.790000000000
31
0.0
0
LINE
5
65d
100
AcDbEntity
8
5-0
6
CONTINUOUS
62
7
100
AcDbLine
10
541.310000000000
20
471.790000000000
30
0.0
11
541.490000000000
21
471.720000000000
31
0.0
0
LINE
5
65e
100
AcDbEntity
8
5-0
6
CONTINUOUS
62
7
100
AcDbLine
10
541.490000000000
20
471.720000000000
30
0.0
11
541.650000000000
21
471.650000000000
31
0.0
0
LINE
5
65f
100
AcDbEntity
8
5-0
6
CONTINUOUS
62
7
100
AcDbLine
10
541.650000000000
20
471.650000000000
30
0.0
11
541.810000000000
21
471.580000000000
31
0.0
0
LINE
5
660
100
AcDbEntity
8
5-0
6
CONTINUOUS
62
7
100
AcDbLine
10
541.810000000000
20
471.580000000000
30
0.0
11
541.960000000000
21
471.520000000000
31
0.0
0
LINE
5
661
100
AcDbEntity
8
5-0
6
CONTINUOUS
62
7
100
AcDbLine
10
541.960000000000
20
471.520000000000
30
0.0
11
542.110000000000
21
471.470000000000
31
0.0
0
LINE
5
662
100
AcDbEntity
8
5-0
6
CONTINUOUS
62
7
100
AcDbLine
10
542.110000000000
20
471.470000000000
30
0.0
11
542.260000000000
21
471.410000000000
31
0.0
0
LINE
5
663
100
AcDbEntity
8
5-0
6
CONTINUOUS
62
7
100
AcDbLine
10
542.260000000000
20
471.410000000000
30
0.0
11
542.400000000000
21
471.360000000000
31
0.0
0
LINE
5
664
100
AcDbEntity
8
5-0
6
CONTINUOUS
62
7
100
AcDbLine
10
542.400000000000
20
471.360000000000
30
0.0
11
542.560000000000
21
471.300000000000
31
0.0
0
LINE
5
665
100
AcDbEntity
8
5-0
6
CONTINUOUS
62
7
100
AcDbLine
10
542.560000000000
20
471.300000000000
30
0.0
11
542.710000000000
21
471.250000000000
31
0.0
0
LINE
5
666
100
AcDbEntity
8
5-0
6
CONTINUOUS
62
7
100
AcDbLine
10
542.710000000000
20
471.250000000000
30
0.0
11
542.870000000000
21
471.190000000000
31
0.0
0
LINE
5
667
100
AcDbEntity
8
5-0
6
CONTINUOUS
62
7
100
AcDbLine
10
542.870000000000
20
471.190000000000
30
0.0
11
543.030000000000
21
471.140000000000
31
0.0
0
LINE
5
668
100
AcDbEntity
8
5-0
6
CONTINUOUS
62
7
100
AcDbLine
10
543.030000000000
20
471.140000000000
30
0.0
11
543.210000000000
21
471.090000000000
31
0.0
0
LINE
5
669
100
AcDbEntity
8
5-0
6
CONTINUOUS
62
7
100
AcDbLine
10
543.210000000000
20
471.090000000000
30
0.0
11
543.380000000000
21
471.040000000000
31
0.0
0
LINE
5
66a
100
AcDbEntity
8
5-0
6
CONTINUOUS
62
7
100
AcDbLine
10
543.380000000000
20
471.040000000000
30
0.0
11
543.560000000000
21
470.980000000000
31
0.0
0
LINE
5
66b
100
AcDbEntity
8
5-0
6
CONTINUOUS
62
7
100
AcDbLine
10
543.560000000000
20
470.980000000000
30
0.0
11
543.750000000000
21
470.930000000000
31
0.0
0
LINE
5
66c
100
AcDbEntity
8
5-0
6
CONTINUOUS
62
7
100
AcDbLine
10
543.750000000000
20
470.930000000000
30
0.0
11
543.930000000000
21
470.880000000000
31
0.0
0
LINE
5
66d
100
AcDbEntity
8
5-0
6
CONTINUOUS
62
7
100
AcDbLine
10
543.930000000000
20
470.880000000000
30
0.0
11
544.120000000000
21
470.830000000000
31
0.0
0
LINE
5
66e
100
AcDbEntity
8
5-0
6
CONTINUOUS
62
7
100
AcDbLine
10
544.120000000000
20
470.830000000000
30
0.0
11
544.310000000000
21
470.780000000000
31
0.0
0
LINE
5
66f
100
AcDbEntity
8
5-0
6
CONTINUOUS
62
7
100
AcDbLine
10
544.310000000000
20
470.780000000000
30
0.0
11
544.500000000000
21
470.740000000000
31
0.0
0
LINE
5
670
100
AcDbEntity
8
5-0
6
CONTINUOUS
62
7
100
AcDbLine
10
544.500000000000
20
470.740000000000
30
0.0
11
544.690000000000
21
470.690000000000
31
0.0
0
LINE
5
671
100
AcDbEntity
8
5-0
6
CONTINUOUS
62
7
100
AcDbLine
10
544.690000000000
20
470.690000000000
30
0.0
11
544.880000000000
21
470.650000000000
31
0.0
0
LINE
5
672
100
AcDbEntity
8
5-0
6
CONTINUOUS
62
7
100
AcDbLine
10
544.880000000000
20
470.650000000000
30
0.0
11
545.080000000000
21
470.610000000000
31
0.0
0
LINE
5
673
100
AcDbEntity
8
5-0
6
CONTINUOUS
62
7
100
AcDbLine
10
545.080000000000
20
470.610000000000
30
0.0
11
545.280000000000
21
470.570000000000
31
0.0
0
LINE
5
674
100
AcDbEntity
8
5-0
6
CONTINUOUS
62
7
100
AcDbLine
10
545.280000000000
20
470.570000000000
30
0.0
11
545.480000000000
21
470.530000000000
31
0.0
0
LINE
5
675
100
AcDbEntity
8
5-0
6
CONTINUOUS
62
7
100
AcDbLine
10
545.480000000000
20
470.530000000000
30
0.0
11
545.700000000000
21
470.490000000000
31
0.0
0
LINE
5
676
100
AcDbEntity
8
5-0
6
CONTINUOUS
62
7
100
AcDbLine
10
545.700000000000
20
470.490000000000
30
0.0
11
545.920000000000
21
470.460000000000
31
0.0
0
LINE
5
677
100
AcDbEntity
8
5-0
6
CONTINUOUS
62
7
100
AcDbLine
10
545.920000000000
20
470.460000000000
30
0.0
11
546.180000000000
21
470.420000000000
31
0.0
0
LINE
5
678
100
AcDbEntity
8
5-0
6
CONTINUOUS
62
7
100
AcDbLine
10
546.180000000000
20
470.420000000000
30
0.0
11
546.450000000000
21
470.380000000000
31
0.0
0
LINE
5
679
100
AcDbEntity
8
5-0
6
CONTINUOUS
62
7
100
AcDbLine
10
546.450000000000
20
470.380000000000
30
0.0
11
546.760000000000
21
470.350000000000
31
0.0
0
LINE
5
67a
100
AcDbEntity
8
5-0
6
CONTINUOUS
62
7
100
AcDbLine
10
546.760000000000
20
470.350000000000
30
0.0
11
547.100000000000
21
470.310000000000
31
0.0
0
LINE
5
67b
100
AcDbEntity
8
5-0
6
CONTINUOUS
62
7
100
AcDbLine
10
547.100000000000
20
470.310000000000
30
0.0
11
547.500000000000
21
470.270000000000
31
0.0
0
LINE
5
67c
100
AcDbEntity
8
5-0
6
CONTINUOUS
62
7
100
AcDbLine
10
547.500000000000
20
470.270000000000
30
0.0
11
547.940000000000
21
470.220000000000
31
0.0
0
LINE
5
67d
100
AcDbEntity
8
5-0
6
CONTINUOUS
62
7
100
AcDbLine
10
547.940000000000
20
470.220000000000
30
0.0
11
548.440000000000
21
470.180000000000
31
0.0
0
LINE
5
67e
100
AcDbEntity
8
5-0
6
CONTINUOUS
62
7
100
AcDbLine
10
548.440000000000
20
470.180000000000
30
0.0
11
549.010000000000
21
470.140000000000
31
0.0
0
LINE
5
67f
100
AcDbEntity
8
5-0
6
CONTINUOUS
62
7
100
AcDbLine
10
549.010000000000
20
470.140000000000
30
0.0
11
549.650000000000
21
470.090000000000
31
0.0
0
LINE
5
680
100
AcDbEntity
8
5-0
6
CONTINUOUS
62
7
100
AcDbLine
10
549.650000000000
20
470.090000000000
30
0.0
11
550.360000000000
21
470.050000000000
31
0.0
0
LINE
5
681
100
AcDbEntity
8
5-0
6
CONTINUOUS
62
7
100
AcDbLine
10
550.360000000000
20
470.050000000000
30
0.0
11
551.160000000000
21
470.000000000000
31
0.0
0
LINE
5
682
100
AcDbEntity
8
5-0
6
CONTINUOUS
62
7
100
AcDbLine
10
551.160000000000
20
470.000000000000
30
0.0
11
552.050000000000
21
469.960000000000
31
0.0
0
LINE
5
683
100
AcDbEntity
8
5-0
6
CONTINUOUS
62
7
100
AcDbLine
10
552.050000000000
20
469.960000000000
30
0.0
11
553.030000000000
21
469.910000000000
31
0.0
0
LINE
5
684
100
AcDbEntity
8
5-0
6
CONTINUOUS
62
7
100
AcDbLine
10
553.030000000000
20
469.910000000000
30
0.0
11
554.100000000000
21
469.860000000000
31
0.0
0
LINE
5
685
100
AcDbEntity
8
5-0
6
CONTINUOUS
62
7
100
AcDbLine
10
554.100000000000
20
469.860000000000
30
0.0
11
555.290000000000
21
469.820000000000
31
0.0
0
LINE
5
686
100
AcDbEntity
8
5-0
6
CONTINUOUS
62
7
100
AcDbLine
10
555.290000000000
20
469.820000000000
30
0.0
11
556.590000000000
21
469.760000000000
31
0.0
0
LINE
5
687
100
AcDbEntity
8
5-0
6
CONTINUOUS
62
7
100
AcDbLine
10
556.590000000000
20
469.760000000000
30
0.0
11
557.990000000000
21
469.710000000000
31
0.0
0
LINE
5
688
100
AcDbEntity
8
5-0
6
CONTINUOUS
62
7
100
AcDbLine
10
557.990000000000
20
469.710000000000
30
0.0
11
559.500000000000
21
469.660000000000
31
0.0
0
LINE
5
689
100
AcDbEntity
8
5-0
6
CONTINUOUS
62
7
100
AcDbLine
10
559.500000000000
20
469.660000000000
30
0.0
11
561.180000000000
21
469.610000000000
31
0.0
0
LINE
5
68a
100
AcDbEntity
8
5-0
6
CONTINUOUS
62
7
100
AcDbLine
10
561.180000000000
20
469.610000000000
30
0.0
11
562.960000000000
21
469.550000000000
31
0.0
0
LINE
5
68b
100
AcDbEntity
8
5-0
6
CONTINUOUS
62
7
100
AcDbLine
10
562.960000000000
20
469.550000000000
30
0.0
11
564.900000000000
21
469.490000000000
31
0.0
0
LINE
5
68c
100
AcDbEntity
8
5-0
6
CONTINUOUS
62
7
100
AcDbLine
10
564.900000000000
20
469.490000000000
30
0.0
11
567.000000000000
21
469.430000000000
31
0.0
0
LINE
5
68d
100
AcDbEntity
8
5-0
6
CONTINUOUS
62
7
100
AcDbLine
10
567.000000000000
20
469.430000000000
30
0.0
11
569.230000000000
21
469.360000000000
31
0.0
0
LINE
5
68e
100
AcDbEntity
8
5-0
6
CONTINUOUS
62
7
100
AcDbLine
10
569.230000000000
20
469.360000000000
30
0.0
11
571.720000000000
21
469.290000000000
31
0.0
0
LINE
5
68f
100
AcDbEntity
8
5-0
6
CONTINUOUS
62
7
100
AcDbLine
10
571.720000000000
20
469.290000000000
30
0.0
11
574.300000000000
21
469.220000000000
31
0.0
0
LINE
5
690
100
AcDbEntity
8
5-0
6
CONTINUOUS
62
7
100
AcDbLine
10
574.300000000000
20
469.220000000000
30
0.0
11
577.200000000000
21
469.140000000000
31
0.0
0
LINE
5
691
100
AcDbEntity
8
5-0
6
CONTINUOUS
62
7
100
AcDbLine
10
577.200000000000
20
469.140000000000
30
0.0
11
580.530000000000
21
469.050000000000
31
0.0
0
LINE
5
692
100
AcDbEntity
8
5-0
6
CONTINUOUS
62
7
100
AcDbLine
10
513.110000000000
20
477.050000000000
30
0.0
11
513.620000000000
21
476.950000000000
31
0.0
0
LINE
5
693
100
AcDbEntity
8
5-0
6
CONTINUOUS
62
7
100
AcDbLine
10
513.620000000000
20
476.950000000000
30
0.0
11
514.120000000000
21
476.850000000000
31
0.0
0
LINE
5
694
100
AcDbEntity
8
5-0
6
CONTINUOUS
62
7
100
AcDbLine
10
514.120000000000
20
476.850000000000
30
0.0
11
514.620000000000
21
476.760000000000
31
0.0
0
LINE
5
695
100
AcDbEntity
8
5-0
6
CONTINUOUS
62
7
100
AcDbLine
10
514.620000000000
20
476.760000000000
30
0.0
11
515.110000000000
21
476.680000000000
31
0.0
0
LINE
5
696
100
AcDbEntity
8
5-0
6
CONTINUOUS
62
7
100
AcDbLine
10
515.110000000000
20
476.680000000000
30
0.0
11
515.620000000000
21
476.600000000000
31
0.0
0
LINE
5
697
100
AcDbEntity
8
5-0
6
CONTINUOUS
62
7
100
AcDbLine
10
515.620000000000
20
476.600000000000
30
0.0
11
516.130000000000
21
476.520000000000
31
0.0
0
LINE
5
698
100
AcDbEntity
8
5-0
6
CONTINUOUS
62
7
100
AcDbLine
10
516.130000000000
20
476.520000000000
30
0.0
11
516.640000000000
21
476.450000000000
31
0.0
0
LINE
5
699
100
AcDbEntity
8
5-0
6
CONTINUOUS
62
7
100
AcDbLine
10
516.640000000000
20
476.450000000000
30
0.0
11
517.170000000000
21
476.380000000000
31
0.0
0
LINE
5
69a
100
AcDbEntity
8
5-0
6
CONTINUOUS
62
7
100
AcDbLine
10
517.170000000000
20
476.380000000000
30
0.0
11
517.700000000000
21
476.320000000000
31
0.0
0
LINE
5
69b
100
AcDbEntity
8
5-0
6
CONTINUOUS
62
7
100
AcDbLine
10
517.700000000000
20
476.320000000000
30
0.0
11
518.240000000000
21
476.260000000000
31
0.0
0
LINE
5
69c
100
AcDbEntity
8
5-0
6
CONTINUOUS
62
7
100
AcDbLine
10
518.240000000000
20
476.260000000000
30
0.0
11
518.790000000000
21
476.200000000000
31
0.0
0
LINE
5
69d
100
AcDbEntity
8
5-0
6
CONTINUOUS
62
7
100
AcDbLine
10
518.790000000000
20
476.200000000000
30
0.0
11
519.350000000000
21
476.140000000000
31
0.0
0
LINE
5
69e
100
AcDbEntity
8
5-0
6
CONTINUOUS
62
7
100
AcDbLine
10
519.350000000000
20
476.140000000000
30
0.0
11
519.910000000000
21
476.090000000000
31
0.0
0
LINE
5
69f
100
AcDbEntity
8
5-0
6
CONTINUOUS
62
7
100
AcDbLine
10
519.910000000000
20
476.090000000000
30
0.0
11
520.470000000000
21
476.040000000000
31
0.0
0
LINE
5
6a0
100
AcDbEntity
8
5-0
6
CONTINUOUS
62
7
100
AcDbLine
10
520.470000000000
20
476.040000000000
30
0.0
11
521.040000000000
21
475.990000000000
31
0.0
0
LINE
5
6a1
100
AcDbEntity
8
5-0
6
CONTINUOUS
62
7
100
AcDbLine
10
521.040000000000
20
475.990000000000
30
0.0
11
521.620000000000
21
475.950000000000
31
0.0
0
LINE
5
6a2
100
AcDbEntity
8
5-0
6
CONTINUOUS
62
7
100
AcDbLine
10
521.620000000000
20
475.950000000000
30
0.0
11
522.200000000000
21
475.900000000000
31
0.0
0
LINE
5
6a3
100
AcDbEntity
8
5-0
6
CONTINUOUS
62
7
100
AcDbLine
10
522.200000000000
20
475.900000000000
30
0.0
11
522.790000000000
21
475.860000000000
31
0.0
0
LINE
5
6a4
100
AcDbEntity
8
5-0
6
CONTINUOUS
62
7
100
AcDbLine
10
522.790000000000
20
475.860000000000
30
0.0
11
523.380000000000
21
475.810000000000
31
0.0
0
LINE
5
6a5
100
AcDbEntity
8
5-0
6
CONTINUOUS
62
7
100
AcDbLine
10
523.380000000000
20
475.810000000000
30
0.0
11
523.980000000000
21
475.770000000000
31
0.0
0
LINE
5
6a6
100
AcDbEntity
8
5-0
6
CONTINUOUS
62
7
100
AcDbLine
10
523.980000000000
20
475.770000000000
30
0.0
11
524.580000000000
21
475.730000000000
31
0.0
0
LINE
5
6a7
100
AcDbEntity
8
5-0
6
CONTINUOUS
62
7
100
AcDbLine
10
524.580000000000
20
475.730000000000
30
0.0
11
525.190000000000
21
475.690000000000
31
0.0
0
LINE
5
6a8
100
AcDbEntity
8
5-0
6
CONTINUOUS
62
7
100
AcDbLine
10
525.190000000000
20
475.690000000000
30
0.0
11
525.810000000000
21
475.650000000000
31
0.0
0
LINE
5
6a9
100
AcDbEntity
8
5-0
6
CONTINUOUS
62
7
100
AcDbLine
10
525.810000000000
20
475.650000000000
30
0.0
11
526.430000000000
21
475.610000000000
31
0.0
0
LINE
5
6aa
100
AcDbEntity
8
5-0
6
CONTINUOUS
62
7
100
AcDbLine
10
526.430000000000
20
475.610000000000
30
0.0
11
527.060000000000
21
475.570000000000
31
0.0
0
LINE
5
6ab
100
AcDbEntity
8
5-0
6
CONTINUOUS
62
7
100
AcDbLine
10
527.060000000000
20
475.570000000000
30
0.0
11
527.700000000000
21
475.530000000000
31
0.0
0
LINE
5
6ac
100
AcDbEntity
8
5-0
6
CONTINUOUS
62
7
100
AcDbLine
10
527.700000000000
20
475.530000000000
30
0.0
11
528.350000000000
21
475.490000000000
31
0.0
0
LINE
5
6ad
100
AcDbEntity
8
5-0
6
CONTINUOUS
62
7
100
AcDbLine
10
528.350000000000
20
475.490000000000
30
0.0
11
529.010000000000
21
475.450000000000
31
0.0
0
LINE
5
6ae
100
AcDbEntity
8
5-0
6
CONTINUOUS
62
7
100
AcDbLine
10
529.010000000000
20
475.450000000000
30
0.0
11
529.670000000000
21
475.410000000000
31
0.0
0
LINE
5
6af
100
AcDbEntity
8
5-0
6
CONTINUOUS
62
7
100
AcDbLine
10
529.670000000000
20
475.410000000000
30
0.0
11
530.350000000000
21
475.380000000000
31
0.0
0
LINE
5
6b0
100
AcDbEntity
8
5-0
6
CONTINUOUS
62
7
100
AcDbLine
10
530.350000000000
20
475.380000000000
30
0.0
11
531.040000000000
21
475.340000000000
31
0.0
0
LINE
5
6b1
100
AcDbEntity
8
5-0
6
CONTINUOUS
62
7
100
AcDbLine
10
531.040000000000
20
475.340000000000
30
0.0
11
531.740000000000
21
475.300000000000
31
0.0
0
LINE
5
6b2
100
AcDbEntity
8
5-0
6
CONTINUOUS
62
7
100
AcDbLine
10
531.740000000000
20
475.300000000000
30
0.0
11
532.450000000000
21
475.270000000000
31
0.0
0
LINE
5
6b3
100
AcDbEntity
8
5-0
6
CONTINUOUS
62
7
100
AcDbLine
10
532.450000000000
20
475.270000000000
30
0.0
11
533.170000000000
21
475.230000000000
31
0.0
0
LINE
5
6b4
100
AcDbEntity
8
5-0
6
CONTINUOUS
62
7
100
AcDbLine
10
533.170000000000
20
475.230000000000
30
0.0
11
533.910000000000
21
475.200000000000
31
0.0
0
LINE
5
6b5
100
AcDbEntity
8
5-0
6
CONTINUOUS
62
7
100
AcDbLine
10
533.910000000000
20
475.200000000000
30
0.0
11
534.670000000000
21
475.160000000000
31
0.0
0
LINE
5
6b6
100
AcDbEntity
8
5-0
6
CONTINUOUS
62
7
100
AcDbLine
10
534.670000000000
20
475.160000000000
30
0.0
11
535.460000000000
21
475.120000000000
31
0.0
0
LINE
5
6b7
100
AcDbEntity
8
5-0
6
CONTINUOUS
62
7
100
AcDbLine
10
535.460000000000
20
475.120000000000
30
0.0
11
536.270000000000
21
475.090000000000
31
0.0
0
LINE
5
6b8
100
AcDbEntity
8
5-0
6
CONTINUOUS
62
7
100
AcDbLine
10
536.270000000000
20
475.090000000000
30
0.0
11
537.110000000000
21
475.050000000000
31
0.0
0
LINE
5
6b9
100
AcDbEntity
8
5-0
6
CONTINUOUS
62
7
100
AcDbLine
10
507.110000000000
20
469.050000000000
30
0.0
11
508.300000000000
21
468.610000000000
31
0.0
0
LINE
5
6ba
100
AcDbEntity
8
5-0
6
CONTINUOUS
62
7
100
AcDbLine
10
508.300000000000
20
468.610000000000
30
0.0
11
509.560000000000
21
468.160000000000
31
0.0
0
LINE
5
6bb
100
AcDbEntity
8
5-0
6
CONTINUOUS
62
7
100
AcDbLine
10
509.560000000000
20
468.160000000000
30
0.0
11
510.880000000000
21
467.690000000000
31
0.0
0
LINE
5
6bc
100
AcDbEntity
8
5-0
6
CONTINUOUS
62
7
100
AcDbLine
10
510.880000000000
20
467.690000000000
30
0.0
11
512.250000000000
21
467.220000000000
31
0.0
0
LINE
5
6bd
100
AcDbEntity
8
5-0
6
CONTINUOUS
62
7
100
AcDbLine
10
512.250000000000
20
467.220000000000
30
0.0
11
513.660000000000
21
466.750000000000
31
0.0
0
LINE
5
6be
100
AcDbEntity
8
5-0
6
CONTINUOUS
62
7
100
AcDbLine
10
513.660000000000
20
466.750000000000
30
0.0
11
515.090000000000
21
466.290000000000
31
0.0
0
LINE
5
6bf
100
AcDbEntity
8
5-0
6
CONTINUOUS
62
7
100
AcDbLine
10
515.090000000000
20
466.290000000000
30
0.0
11
516.550000000000
21
465.830000000000
31
0.0
0
LINE
5
6c0
100
AcDbEntity
8
5-0
6
CONTINUOUS
62
7
100
AcDbLine
10
516.550000000000
20
465.830000000000
30
0.0
11
518.020000000000
21
465.390000000000
31
0.0
0
LINE
5
6c1
100
AcDbEntity
8
5-0
6
CONTINUOUS
62
7
100
AcDbLine
10
518.020000000000
20
465.390000000000
30
0.0
11
519.500000000000
21
464.950000000000
31
0.0
0
LINE
5
6c2
100
AcDbEntity
8
5-0
6
CONTINUOUS
62
7
100
AcDbLine
10
519.500000000000
20
464.950000000000
30
0.0
11
520.990000000000
21
464.540000000000
31
0.0
0
LINE
5
6c3
100
AcDbEntity
8
5-0
6
CONTINUOUS
62
7
100
AcDbLine
10
520.990000000000
20
464.540000000000
30
0.0
11
522.470000000000
21
464.150000000000
31
0.0
0
LINE
5
6c4
100
AcDbEntity
8
5-0
6
CONTINUOUS
62
7
100
AcDbLine
10
522.470000000000
20
464.150000000000
30
0.0
11
523.950000000000
21
463.780000000000
31
0.0
0
LINE
5
6c5
100
AcDbEntity
8
5-0
6
CONTINUOUS
62
7
100
AcDbLine
10
523.950000000000
20
463.780000000000
30
0.0
11
525.420000000000
21
463.440000000000
31
0.0
0
LINE
5
6c6
100
AcDbEntity
8
5-0
6
CONTINUOUS
62
7
100
AcDbLine
10
525.420000000000
20
463.440000000000
30
0.0
11
526.880000000000
21
463.130000000000
31
0.0
0
LINE
5
6c7
100
AcDbEntity
8
5-0
6
CONTINUOUS
62
7
100
AcDbLine
10
526.880000000000
20
463.130000000000
30
0.0
11
528.340000000000
21
462.850000000000
31
0.0
0
LINE
5
6c8
100
AcDbEntity
8
5-0
6
CONTINUOUS
62
7
100
AcDbLine
10
528.340000000000
20
462.850000000000
30
0.0
11
529.790000000000
21
462.600000000000
31
0.0
0
LINE
5
6c9
100
AcDbEntity
8
5-0
6
CONTINUOUS
62
7
100
AcDbLine
10
529.790000000000
20
462.600000000000
30
0.0
11
531.230000000000
21
462.380000000000
31
0.0
0
LINE
5
6ca
100
AcDbEntity
8
5-0
6
CONTINUOUS
62
7
100
AcDbLine
10
531.230000000000
20
462.380000000000
30
0.0
11
532.670000000000
21
462.200000000000
31
0.0
0
LINE
5
6cb
100
AcDbEntity
8
5-0
6
CONTINUOUS
62
7
100
AcDbLine
10
532.670000000000
20
462.200000000000
30
0.0
11
534.110000000000
21
462.050000000000
31
0.0
0
LINE
5
6cc
100
AcDbEntity
8
5-0
6
CONTINUOUS
62
7
100
AcDbLine
10
534.110000000000
20
460.050000000000
30
0.0
11
534.650000000000
21
459.790000000000
31
0.0
0
LINE
5
6cd
100
AcDbEntity
8
5-0
6
CONTINUOUS
62
7
100
AcDbLine
10
534.650000000000
20
459.790000000000
30
0.0
11
535.130000000000
21
459.540000000000
31
0.0
0
LINE
5
6ce
100
AcDbEntity
8
5-0
6
CONTINUOUS
62
7
100
AcDbLine
10
535.130000000000
20
459.540000000000
30
0.0
11
535.570000000000
21
459.330000000000
31
0.0
0
LINE
5
6cf
100
AcDbEntity
8
5-0
6
CONTINUOUS
62
7
100
AcDbLine
10
535.570000000000
20
459.330000000000
30
0.0
11
535.980000000000
21
459.130000000000
31
0.0
0
LINE
5
6d0
100
AcDbEntity
8
5-0
6
CONTINUOUS
62
7
100
AcDbLine
10
535.980000000000
20
459.130000000000
30
0.0
11
536.360000000000
21
458.940000000000
31
0.0
0
LINE
5
6d1
100
AcDbEntity
8
5-0
6
CONTINUOUS
62
7
100
AcDbLine
10
536.360000000000
20
458.940000000000
30
0.0
11
536.720000000000
21
458.770000000000
31
0.0
0
LINE
5
6d2
100
AcDbEntity
8
5-0
6
CONTINUOUS
62
7
100
AcDbLine
10
536.720000000000
20
458.770000000000
30
0.0
11
537.060000000000
21
458.610000000000
31
0.0
0
LINE
5
6d3
100
AcDbEntity
8
5-0
6
CONTINUOUS
62
7
100
AcDbLine
10
537.060000000000
20
458.610000000000
30
0.0
11
537.390000000000
21
458.460000000000
31
0.0
0
LINE
5
6d4
100
AcDbEntity
8
5-0
6
CONTINUOUS
62
7
100
AcDbLine
10
537.390000000000
20
458.460000000000
30
0.0
11
537.710000000000
21
458.310000000000
31
0.0
0
LINE
5
6d5
100
AcDbEntity
8
5-0
6
CONTINUOUS
62
7
100
AcDbLine
10
537.710000000000
20
458.310000000000
30
0.0
11
538.010000000000
21
458.180000000000
31
0.0
0
LINE
5
6d6
100
AcDbEntity
8
5-0
6
CONTINUOUS
62
7
100
AcDbLine
10
538.010000000000
20
458.180000000000
30
0.0
11
538.310000000000
21
458.040000000000
31
0.0
0
LINE
5
6d7
100
AcDbEntity
8
5-0
6
CONTINUOUS
62
7
100
AcDbLine
10
538.310000000000
20
458.040000000000
30
0.0
11
538.610000000000
21
457.920000000000
31
0.0
0
LINE
5
6d8
100
AcDbEntity
8
5-0
6
CONTINUOUS
62
7
100
AcDbLine
10
538.610000000000
20
457.920000000000
30
0.0
11
538.890000000000
21
457.800000000000
31
0.0
0
LINE
5
6d9
100
AcDbEntity
8
5-0
6
CONTINUOUS
62
7
100
AcDbLine
10
538.890000000000
20
457.800000000000
30
0.0
11
539.180000000000
21
457.680000000000
31
0.0
0
LINE
5
6da
100
AcDbEntity
8
5-0
6
CONTINUOUS
62
7
100
AcDbLine
10
539.180000000000
20
457.680000000000
30
0.0
11
539.470000000000
21
457.560000000000
31
0.0
0
LINE
5
6db
100
AcDbEntity
8
5-0
6
CONTINUOUS
62
7
100
AcDbLine
10
539.470000000000
20
457.560000000000
30
0.0
11
539.750000000000
21
457.450000000000
31
0.0
0
LINE
5
6dc
100
AcDbEntity
8
5-0
6
CONTINUOUS
62
7
100
AcDbLine
10
539.750000000000
20
457.450000000000
30
0.0
11
540.040000000000
21
457.350000000000
31
0.0
0
LINE
5
6dd
100
AcDbEntity
8
5-0
6
CONTINUOUS
62
7
100
AcDbLine
10
540.040000000000
20
457.350000000000
30
0.0
11
540.330000000000
21
457.240000000000
31
0.0
0
LINE
5
6de
100
AcDbEntity
8
5-0
6
CONTINUOUS
62
7
100
AcDbLine
10
540.330000000000
20
457.240000000000
30
0.0
11
540.620000000000
21
457.140000000000
31
0.0
0
LINE
5
6df
100
AcDbEntity
8
5-0
6
CONTINUOUS
62
7
100
AcDbLine
10
540.620000000000
20
457.140000000000
30
0.0
11
540.910000000000
21
457.040000000000
31
0.0
0
LINE
5
6e0
100
AcDbEntity
8
5-0
6
CONTINUOUS
62
7
100
AcDbLine
10
540.910000000000
20
457.040000000000
30
0.0
11
541.200000000000
21
456.940000000000
31
0.0
0
LINE
5
6e1
100
AcDbEntity
8
5-0
6
CONTINUOUS
62
7
100
AcDbLine
10
541.200000000000
20
456.940000000000
30
0.0
11
541.500000000000
21
456.840000000000
31
0.0
0
LINE
5
6e2
100
AcDbEntity
8
5-0
6
CONTINUOUS
62
7
100
AcDbLine
10
541.500000000000
20
456.840000000000
30
0.0
11
541.800000000000
21
456.750000000000
31
0.0
0
LINE
5
6e3
100
AcDbEntity
8
5-0
6
CONTINUOUS
62
7
100
AcDbLine
10
541.800000000000
20
456.750000000000
30
0.0
11
542.110000000000
21
456.660000000000
31
0.0
0
LINE
5
6e4
100
AcDbEntity
8
5-0
6
CONTINUOUS
62
7
100
AcDbLine
10
542.110000000000
20
456.660000000000
30
0.0
11
542.420000000000
21
456.570000000000
31
0.0
0
LINE
5
6e5
100
AcDbEntity
8
5-0
6
CONTINUOUS
62
7
100
AcDbLine
10
542.420000000000
20
456.570000000000
30
0.0
11
542.730000000000
21
456.480000000000
31
0.0
0
LINE
5
6e6
100
AcDbEntity
8
5-0
6
CONTINUOUS
62
7
100
AcDbLine
10
542.730000000000
20
456.480000000000
30
0.0
11
543.050000000000
21
456.390000000000
31
0.0
0
LINE
5
6e7
100
AcDbEntity
8
5-0
6
CONTINUOUS
62
7
100
AcDbLine
10
543.050000000000
20
456.390000000000
30
0.0
11
543.380000000000
21
456.310000000000
31
0.0
0
LINE
5
6e8
100
AcDbEntity
8
5-0
6
CONTINUOUS
62
7
100
AcDbLine
10
543.380000000000
20
456.310000000000
30
0.0
11
543.710000000000
21
456.220000000000
31
0.0
0
LINE
5
6e9
100
AcDbEntity
8
5-0
6
CONTINUOUS
62
7
100
AcDbLine
10
543.710000000000
20
456.220000000000
30
0.0
11
544.040000000000
21
456.140000000000
31
0.0
0
LINE
5
6ea
100
AcDbEntity
8
5-0
6
CONTINUOUS
62
7
100
AcDbLine
10
544.040000000000
20
456.140000000000
30
0.0
11
544.380000000000
21
456.060000000000
31
0.0
0
LINE
5
6eb
100
AcDbEntity
8
5-0
6
CONTINUOUS
62
7
100
AcDbLine
10
544.380000000000
20
456.060000000000
30
0.0
11
544.730000000000
21
455.990000000000
31
0.0
0
LINE
5
6ec
100
AcDbEntity
8
5-0
6
CONTINUOUS
62
7
100
AcDbLine
10
544.730000000000
20
455.990000000000
30
0.0
11
545.090000000000
21
455.910000000000
31
0.0
0
LINE
5
6ed
100
AcDbEntity
8
5-0
6
CONTINUOUS
62
7
100
AcDbLine
10
545.090000000000
20
455.910000000000
30
0.0
11
545.450000000000
21
455.840000000000
31
0.0
0
LINE
5
6ee
100
AcDbEntity
8
5-0
6
CONTINUOUS
62
7
100
AcDbLine
10
545.450000000000
20
455.840000000000
30
0.0
11
545.830000000000
21
455.770000000000
31
0.0
0
LINE
5
6ef
100
AcDbEntity
8
5-0
6
CONTINUOUS
62
7
100
AcDbLine
10
545.830000000000
20
455.770000000000
30
0.0
11
546.220000000000
21
455.700000000000
31
0.0
0
LINE
5
6f0
100
AcDbEntity
8
5-0
6
CONTINUOUS
62
7
100
AcDbLine
10
546.220000000000
20
455.700000000000
30
0.0
11
546.630000000000
21
455.630000000000
31
0.0
0
LINE
5
6f1
100
AcDbEntity
8
5-0
6
CONTINUOUS
62
7
100
AcDbLine
10
546.630000000000
20
455.630000000000
30
0.0
11
547.060000000000
21
455.570000000000
31
0.0
0
LINE
5
6f2
100
AcDbEntity
8
5-0
6
CONTINUOUS
62
7
100
AcDbLine
10
547.060000000000
20
455.570000000000
30
0.0
11
547.510000000000
21
455.510000000000
31
0.0
0
LINE
5
6f3
100
AcDbEntity
8
5-0
6
CONTINUOUS
62
7
100
AcDbLine
10
547.510000000000
20
455.510000000000
30
0.0
11
547.980000000000
21
455.450000000000
31
0.0
0
LINE
5
6f4
100
AcDbEntity
8
5-0
6
CONTINUOUS
62
7
100
AcDbLine
10
547.980000000000
20
455.450000000000
30
0.0
11
548.490000000000
21
455.390000000000
31
0.0
0
LINE
5
6f5
100
AcDbEntity
8
5-0
6
CONTINUOUS
62
7
100
AcDbLine
10
548.490000000000
20
455.390000000000
30
0.0
11
549.030000000000
21
455.340000000000
31
0.0
0
LINE
5
6f6
100
AcDbEntity
8
5-0
6
CONTINUOUS
62
7
100
AcDbLine
10
549.030000000000
20
455.340000000000
30
0.0
11
549.620000000000
21
455.280000000000
31
0.0
0
LINE
5
6f7
100
AcDbEntity
8
5-0
6
CONTINUOUS
62
7
100
AcDbLine
10
549.620000000000
20
455.280000000000
30
0.0
11
550.250000000000
21
455.230000000000
31
0.0
0
LINE
5
6f8
100
AcDbEntity
8
5-0
6
CONTINUOUS
62
7
100
AcDbLine
10
550.250000000000
20
455.230000000000
30
0.0
11
550.930000000000
21
455.180000000000
31
0.0
0
LINE
5
6f9
100
AcDbEntity
8
5-0
6
CONTINUOUS
62
7
100
AcDbLine
10
550.930000000000
20
455.180000000000
30
0.0
11
551.670000000000
21
455.130000000000
31
0.0
0
LINE
5
6fa
100
AcDbEntity
8
5-0
6
CONTINUOUS
62
7
100
AcDbLine
10
551.670000000000
20
455.130000000000
30
0.0
11
552.470000000000
21
455.080000000000
31
0.0
0
LINE
5
6fb
100
AcDbEntity
8
5-0
6
CONTINUOUS
62
7
100
AcDbLine
10
552.470000000000
20
455.080000000000
30
0.0
11
553.350000000000
21
455.030000000000
31
0.0
0
LINE
5
6fc
100
AcDbEntity
8
5-0
6
CONTINUOUS
62
7
100
AcDbLine
10
553.350000000000
20
455.030000000000
30
0.0
11
554.300000000000
21
454.980000000000
31
0.0
0
LINE
5
6fd
100
AcDbEntity
8
5-0
6
CONTINUOUS
62
7
100
AcDbLine
10
554.300000000000
20
454.980000000000
30
0.0
11
555.340000000000
21
454.930000000000
31
0.0
0
LINE
5
6fe
100
AcDbEntity
8
5-0
6
CONTINUOUS
62
7
100
AcDbLine
10
555.340000000000
20
454.930000000000
30
0.0
11
556.460000000000
21
454.880000000000
31
0.0
0
LINE
5
6ff
100
AcDbEntity
8
5-0
6
CONTINUOUS
62
7
100
AcDbLine
10
556.460000000000
20
454.880000000000
30
0.0
11
557.690000000000
21
454.830000000000
31
0.0
0
LINE
5
700
100
AcDbEntity
8
5-0
6
CONTINUOUS
62
7
100
AcDbLine
10
557.690000000000
20
454.830000000000
30
0.0
11
559.020000000000
21
454.780000000000
31
0.0
0
LINE
5
701
100
AcDbEntity
8
5-0
6
CONTINUOUS
62
7
100
AcDbLine
10
559.020000000000
20
454.780000000000
30
0.0
11
560.450000000000
21
454.720000000000
31
0.0
0
LINE
5
702
100
AcDbEntity
8
5-0
6
CONTINUOUS
62
7
100
AcDbLine
10
560.450000000000
20
454.720000000000
30
0.0
11
562.010000000000
21
454.670000000000
31
0.0
0
LINE
5
703
100
AcDbEntity
8
5-0
6
CONTINUOUS
62
7
100
AcDbLine
10
562.010000000000
20
454.670000000000
30
0.0
11
563.690000000000
21
454.610000000000
31
0.0
0
LINE
5
704
100
AcDbEntity
8
5-0
6
CONTINUOUS
62
7
100
AcDbLine
10
563.690000000000
20
454.610000000000
30
0.0
11
565.500000000000
21
454.560000000000
31
0.0
0
LINE
5
705
100
AcDbEntity
8
5-0
6
CONTINUOUS
62
7
100
AcDbLine
10
565.500000000000
20
454.560000000000
30
0.0
11
567.450000000000
21
454.500000000000
31
0.0
0
LINE
5
706
100
AcDbEntity
8
5-0
6
CONTINUOUS
62
7
100
AcDbLine
10
567.450000000000
20
454.500000000000
30
0.0
11
569.550000000000
21
454.440000000000
31
0.0
0
LINE
5
707
100
AcDbEntity
8
5-0
6
CONTINUOUS
62
7
100
AcDbLine
10
569.550000000000
20
454.440000000000
30
0.0
11
571.830000000000
21
454.370000000000
31
0.0
0
LINE
5
708
100
AcDbEntity
8
5-0
6
CONTINUOUS
62
7
100
AcDbLine
10
571.830000000000
20
454.370000000000
30
0.0
11
574.290000000000
21
454.300000000000
31
0.0
0
LINE
5
709
100
AcDbEntity
8
5-0
6
CONTINUOUS
62
7
100
AcDbLine
10
574.290000000000
20
454.300000000000
30
0.0
11
576.960000000000
21
454.230000000000
31
0.0
0
LINE
5
70a
100
AcDbEntity
8
5-0
6
CONTINUOUS
62
7
100
AcDbLine
10
576.960000000000
20
454.230000000000
30
0.0
11
579.890000000000
21
454.140000000000
31
0.0
0
LINE
5
70b
100
AcDbEntity
8
5-0
6
CONTINUOUS
62
7
100
AcDbLine
10
579.890000000000
20
454.140000000000
30
0.0
11
583.110000000000
21
454.050000000000
31
0.0
0
LINE
5
70c
100
AcDbEntity
8
5-0
6
CONTINUOUS
62
7
100
AcDbLine
10
583.110000000000
20
454.050000000000
30
0.0
11
584.420000000000
21
454.260000000000
31
0.0
0
LINE
5
70d
100
AcDbEntity
8
5-0
6
CONTINUOUS
62
7
100
AcDbLine
10
584.420000000000
20
454.260000000000
30
0.0
11
585.670000000000
21
454.500000000000
31
0.0
0
LINE
5
70e
100
AcDbEntity
8
5-0
6
CONTINUOUS
62
7
100
AcDbLine
10
585.670000000000
20
454.500000000000
30
0.0
11
586.880000000000
21
454.770000000000
31
0.0
0
LINE
5
70f
100
AcDbEntity
8
5-0
6
CONTINUOUS
62
7
100
AcDbLine
10
586.880000000000
20
454.770000000000
30
0.0
11
588.050000000000
21
455.070000000000
31
0.0
0
LINE
5
710
100
AcDbEntity
8
5-0
6
CONTINUOUS
62
7
100
AcDbLine
10
588.050000000000
20
455.070000000000
30
0.0
11
589.190000000000
21
455.430000000000
31
0.0
0
LINE
5
711
100
AcDbEntity
8
5-0
6
CONTINUOUS
62
7
100
AcDbLine
10
589.190000000000
20
455.430000000000
30
0.0
11
590.290000000000
21
455.820000000000
31
0.0
0
LINE
5
712
100
AcDbEntity
8
5-0
6
CONTINUOUS
62
7
100
AcDbLine
10
590.290000000000
20
455.820000000000
30
0.0
11
591.360000000000
21
456.260000000000
31
0.0
0
LINE
5
713
100
AcDbEntity
8
5-0
6
CONTINUOUS
62
7
100
AcDbLine
10
591.360000000000
20
456.260000000000
30
0.0
11
592.410000000000
21
456.750000000000
31
0.0
0
LINE
5
714
100
AcDbEntity
8
5-0
6
CONTINUOUS
62
7
100
AcDbLine
10
592.410000000000
20
456.750000000000
30
0.0
11
593.430000000000
21
457.280000000000
31
0.0
0
LINE
5
715
100
AcDbEntity
8
5-0
6
CONTINUOUS
62
7
100
AcDbLine
10
593.430000000000
20
457.280000000000
30
0.0
11
594.430000000000
21
457.860000000000
31
0.0
0
LINE
5
716
100
AcDbEntity
8
5-0
6
CONTINUOUS
62
7
100
AcDbLine
10
594.430000000000
20
457.860000000000
30
0.0
11
595.400000000000
21
458.470000000000
31
0.0
0
LINE
5
717
100
AcDbEntity
8
5-0
6
CONTINUOUS
62
7
100
AcDbLine
10
595.400000000000
20
458.470000000000
30
0.0
11
596.350000000000
21
459.120000000000
31
0.0
0
LINE
5
718
100
AcDbEntity
8
5-0
6
CONTINUOUS
62
7
100
AcDbLine
10
596.350000000000
20
459.120000000000
30
0.0
11
597.280000000000
21
459.810000000000
31
0.0
0
LINE
5
719
100
AcDbEntity
8
5-0
6
CONTINUOUS
62
7
100
AcDbLine
10
597.280000000000
20
459.810000000000
30
0.0
11
598.190000000000
21
460.520000000000
31
0.0
0
LINE
5
71a
100
AcDbEntity
8
5-0
6
CONTINUOUS
62
7
100
AcDbLine
10
598.190000000000
20
460.520000000000
30
0.0
11
599.090000000000
21
461.260000000000
31
0.0
0
LINE
5
71b
100
AcDbEntity
8
5-0
6
CONTINUOUS
62
7
100
AcDbLine
10
599.090000000000
20
461.260000000000
30
0.0
11
599.970000000000
21
462.020000000000
31
0.0
0
LINE
5
71c
100
AcDbEntity
8
5-0
6
CONTINUOUS
62
7
100
AcDbLine
10
599.970000000000
20
462.020000000000
30
0.0
11
600.840000000000
21
462.800000000000
31
0.0
0
LINE
5
71d
100
AcDbEntity
8
5-0
6
CONTINUOUS
62
7
100
AcDbLine
10
600.840000000000
20
462.800000000000
30
0.0
11
601.700000000000
21
463.600000000000
31
0.0
0
LINE
5
71e
100
AcDbEntity
8
5-0
6
CONTINUOUS
62
7
100
AcDbLine
10
601.700000000000
20
463.600000000000
30
0.0
11
602.560000000000
21
464.410000000000
31
0.0
0
LINE
5
71f
100
AcDbEntity
8
5-0
6
CONTINUOUS
62
7
100
AcDbLine
10
602.560000000000
20
464.410000000000
30
0.0
11
603.410000000000
21
465.230000000000
31
0.0
0
LINE
5
720
100
AcDbEntity
8
5-0
6
CONTINUOUS
62
7
100
AcDbLine
10
603.410000000000
20
465.230000000000
30
0.0
11
604.270000000000
21
466.060000000000
31
0.0
0
LINE
5
721
100
AcDbEntity
8
5-0
6
CONTINUOUS
62
7
100
AcDbLine
10
604.270000000000
20
466.060000000000
30
0.0
11
605.130000000000
21
466.890000000000
31
0.0
0
LINE
5
722
100
AcDbEntity
8
5-0
6
CONTINUOUS
62
7
100
AcDbLine
10
605.130000000000
20
466.890000000000
30
0.0
11
605.990000000000
21
467.720000000000
31
0.0
0
LINE
5
723
100
AcDbEntity
8
5-0
6
CONTINUOUS
62
7
100
AcDbLine
10
605.990000000000
20
467.720000000000
30
0.0
11
606.870000000000
21
468.550000000000
31
0.0
0
LINE
5
724
100
AcDbEntity
8
5-0
6
CONTINUOUS
62
7
100
AcDbLine
10
606.870000000000
20
468.550000000000
30
0.0
11
607.750000000000
21
469.380000000000
31
0.0
0
LINE
5
725
100
AcDbEntity
8
5-0
6
CONTINUOUS
62
7
100
AcDbLine
10
607.750000000000
20
469.380000000000
30
0.0
11
608.650000000000
21
470.200000000000
31
0.0
0
LINE
5
726
100
AcDbEntity
8
5-0
6
CONTINUOUS
62
7
100
AcDbLine
10
608.650000000000
20
470.200000000000
30
0.0
11
609.560000000000
21
471.000000000000
31
0.0
0
LINE
5
727
100
AcDbEntity
8
5-0
6
CONTINUOUS
62
7
100
AcDbLine
10
609.560000000000
20
471.000000000000
30
0.0
11
610.480000000000
21
471.800000000000
31
0.0
0
LINE
5
728
100
AcDbEntity
8
5-0
6
CONTINUOUS
62
7
100
AcDbLine
10
610.480000000000
20
471.800000000000
30
0.0
11
611.420000000000
21
472.580000000000
31
0.0
0
LINE
5
729
100
AcDbEntity
8
5-0
6
CONTINUOUS
62
7
100
AcDbLine
10
611.420000000000
20
472.580000000000
30
0.0
11
612.370000000000
21
473.340000000000
31
0.0
0
LINE
5
72a
100
AcDbEntity
8
5-0
6
CONTINUOUS
62
7
100
AcDbLine
10
612.370000000000
20
473.340000000000
30
0.0
11
613.340000000000
21
474.080000000000
31
0.0
0
LINE
5
72b
100
AcDbEntity
8
5-0
6
CONTINUOUS
62
7
100
AcDbLine
10
613.340000000000
20
474.080000000000
30
0.0
11
614.320000000000
21
474.800000000000
31
0.0
0
LINE
5
72c
100
AcDbEntity
8
5-0
6
CONTINUOUS
62
7
100
AcDbLine
10
614.320000000000
20
474.800000000000
30
0.0
11
615.310000000000
21
475.490000000000
31
0.0
0
LINE
5
72d
100
AcDbEntity
8
5-0
6
CONTINUOUS
62
7
100
AcDbLine
10
615.310000000000
20
475.490000000000
30
0.0
11
616.320000000000
21
476.140000000000
31
0.0
0
LINE
5
72e
100
AcDbEntity
8
5-0
6
CONTINUOUS
62
7
100
AcDbLine
10
616.320000000000
20
476.140000000000
30
0.0
11
617.340000000000
21
476.770000000000
31
0.0
0
LINE
5
72f
100
AcDbEntity
8
5-0
6
CONTINUOUS
62
7
100
AcDbLine
10
617.340000000000
20
476.770000000000
30
0.0
11
618.380000000000
21
477.370000000000
31
0.0
0
LINE
5
730
100
AcDbEntity
8
5-0
6
CONTINUOUS
62
7
100
AcDbLine
10
618.380000000000
20
477.370000000000
30
0.0
11
619.420000000000
21
477.930000000000
31
0.0
0
LINE
5
731
100
AcDbEntity
8
5-0
6
CONTINUOUS
62
7
100
AcDbLine
10
619.420000000000
20
477.930000000000
30
0.0
11
620.490000000000
21
478.450000000000
31
0.0
0
LINE
5
732
100
AcDbEntity
8
5-0
6
CONTINUOUS
62
7
100
AcDbLine
10
620.490000000000
20
478.450000000000
30
0.0
11
621.560000000000
21
478.940000000000
31
0.0
0
LINE
5
733
100
AcDbEntity
8
5-0
6
CONTINUOUS
62
7
100
AcDbLine
10
621.560000000000
20
478.940000000000
30
0.0
11
622.660000000000
21
479.390000000000
31
0.0
0
LINE
5
734
100
AcDbEntity
8
5-0
6
CONTINUOUS
62
7
100
AcDbLine
10
622.660000000000
20
479.390000000000
30
0.0
11
623.780000000000
21
479.800000000000
31
0.0
0
LINE
5
735
100
AcDbEntity
8
5-0
6
CONTINUOUS
62
7
100
AcDbLine
10
623.780000000000
20
479.800000000000
30
0.0
11
624.930000000000
21
480.180000000000
31
0.0
0
LINE
5
736
100
AcDbEntity
8
5-0
6
CONTINUOUS
62
7
100
AcDbLine
10
624.930000000000
20
480.180000000000
30
0.0
11
626.110000000000
21
480.530000000000
31
0.0
0
LINE
5
737
100
AcDbEntity
8
5-0
6
CONTINUOUS
62
7
100
AcDbLine
10
626.110000000000
20
480.530000000000
30
0.0
11
627.330000000000
21
480.840000000000
31
0.0
0
LINE
5
738
100
AcDbEntity
8
5-0
6
CONTINUOUS
62
7
100
AcDbLine
10
627.330000000000
20
480.840000000000
30
0.0
11
628.610000000000
21
481.120000000000
31
0.0
0
LINE
5
739
100
AcDbEntity
8
5-0
6
CONTINUOUS
62
7
100
AcDbLine
10
628.610000000000
20
481.120000000000
30
0.0
11
629.960000000000
21
481.380000000000
31
0.0
0
LINE
5
73a
100
AcDbEntity
8
5-0
6
CONTINUOUS
62
7
100
AcDbLine
10
629.960000000000
20
481.380000000000
30
0.0
11
631.400000000000
21
481.620000000000
31
0.0
0
LINE
5
73b
100
AcDbEntity
8
5-0
6
CONTINUOUS
62
7
100
AcDbLine
10
631.400000000000
20
481.620000000000
30
0.0
11
632.940000000000
21
481.840000000000
31
0.0
0
LINE
5
73c
100
AcDbEntity
8
5-0
6
CONTINUOUS
62
7
100
AcDbLine
10
632.940000000000
20
481.840000000000
30
0.0
11
634.610000000000
21
482.050000000000
31
0.0
0
LINE
5
73d
100
AcDbEntity
8
5-0
6
CONTINUOUS
62
7
100
AcDbLine
10
634.610000000000
20
482.050000000000
30
0.0
11
636.020000000000
21
481.780000000000
31
0.0
0
LINE
5
73e
100
AcDbEntity
8
5-0
6
CONTINUOUS
62
7
100
AcDbLine
10
636.020000000000
20
481.780000000000
30
0.0
11
637.440000000000
21
481.430000000000
31
0.0
0
LINE
5
73f
100
AcDbEntity
8
5-0
6
CONTINUOUS
62
7
100
AcDbLine
10
637.440000000000
20
481.430000000000
30
0.0
11
638.840000000000
21
481.030000000000
31
0.0
0
LINE
5
740
100
AcDbEntity
8
5-0
6
CONTINUOUS
62
7
100
AcDbLine
10
638.840000000000
20
481.030000000000
30
0.0
11
640.220000000000
21
480.570000000000
31
0.0
0
LINE
5
741
100
AcDbEntity
8
5-0
6
CONTINUOUS
62
7
100
AcDbLine
10
640.220000000000
20
480.570000000000
30
0.0
11
641.550000000000
21
480.080000000000
31
0.0
0
LINE
5
742
100
AcDbEntity
8
5-0
6
CONTINUOUS
62
7
100
AcDbLine
10
641.550000000000
20
480.080000000000
30
0.0
11
642.840000000000
21
479.560000000000
31
0.0
0
LINE
5
743
100
AcDbEntity
8
5-0
6
CONTINUOUS
62
7
100
AcDbLine
10
642.840000000000
20
479.560000000000
30
0.0
11
644.090000000000
21
479.030000000000
31
0.0
0
LINE
5
744
100
AcDbEntity
8
5-0
6
CONTINUOUS
62
7
100
AcDbLine
10
644.090000000000
20
479.030000000000
30
0.0
11
645.270000000000
21
478.480000000000
31
0.0
0
LINE
5
745
100
AcDbEntity
8
5-0
6
CONTINUOUS
62
7
100
AcDbLine
10
645.270000000000
20
478.480000000000
30
0.0
11
646.410000000000
21
477.930000000000
31
0.0
0
LINE
5
746
100
AcDbEntity
8
5-0
6
CONTINUOUS
62
7
100
AcDbLine
10
646.410000000000
20
477.930000000000
30
0.0
11
647.490000000000
21
477.370000000000
31
0.0
0
LINE
5
747
100
AcDbEntity
8
5-0
6
CONTINUOUS
62
7
100
AcDbLine
10
647.490000000000
20
477.370000000000
30
0.0
11
648.530000000000
21
476.820000000000
31
0.0
0
LINE
5
748
100
AcDbEntity
8
5-0
6
CONTINUOUS
62
7
100
AcDbLine
10
648.530000000000
20
476.820000000000
30
0.0
11
649.510000000000
21
476.260000000000
31
0.0
0
LINE
5
749
100
AcDbEntity
8
5-0
6
CONTINUOUS
62
7
100
AcDbLine
10
649.510000000000
20
476.260000000000
30
0.0
11
650.450000000000
21
475.700000000000
31
0.0
0
LINE
5
74a
100
AcDbEntity
8
5-0
6
CONTINUOUS
62
7
100
AcDbLine
10
650.450000000000
20
475.700000000000
30
0.0
11
651.340000000000
21
475.140000000000
31
0.0
0
LINE
5
74b
100
AcDbEntity
8
5-0
6
CONTINUOUS
62
7
100
AcDbLine
10
651.340000000000
20
475.140000000000
30
0.0
11
652.200000000000
21
474.580000000000
31
0.0
0
LINE
5
74c
100
AcDbEntity
8
5-0
6
CONTINUOUS
62
7
100
AcDbLine
10
652.200000000000
20
474.580000000000
30
0.0
11
653.020000000000
21
474.020000000000
31
0.0
0
LINE
5
74d
100
AcDbEntity
8
5-0
6
CONTINUOUS
62
7
100
AcDbLine
10
653.020000000000
20
474.020000000000
30
0.0
11
653.810000000000
21
473.460000000000
31
0.0
0
LINE
5
74e
100
AcDbEntity
8
5-0
6
CONTINUOUS
62
7
100
AcDbLine
10
653.810000000000
20
473.460000000000
30
0.0
11
654.570000000000
21
472.900000000000
31
0.0
0
LINE
5
74f
100
AcDbEntity
8
5-0
6
CONTINUOUS
62
7
100
AcDbLine
10
654.570000000000
20
472.900000000000
30
0.0
11
655.310000000000
21
472.340000000000
31
0.0
0
LINE
5
750
100
AcDbEntity
8
5-0
6
CONTINUOUS
62
7
100
AcDbLine
10
655.310000000000
20
472.340000000000
30
0.0
11
656.020000000000
21
471.770000000000
31
0.0
0
LINE
5
751
100
AcDbEntity
8
5-0
6
CONTINUOUS
62
7
100
AcDbLine
10
656.020000000000
20
471.770000000000
30
0.0
11
656.710000000000
21
471.210000000000
31
0.0
0
LINE
5
752
100
AcDbEntity
8
5-0
6
CONTINUOUS
62
7
100
AcDbLine
10
656.710000000000
20
471.210000000000
30
0.0
11
657.390000000000
21
470.650000000000
31
0.0
0
LINE
5
753
100
AcDbEntity
8
5-0
6
CONTINUOUS
62
7
100
AcDbLine
10
657.390000000000
20
470.650000000000
30
0.0
11
658.040000000000
21
470.080000000000
31
0.0
0
LINE
5
754
100
AcDbEntity
8
5-0
6
CONTINUOUS
62
7
100
AcDbLine
10
658.040000000000
20
470.080000000000
30
0.0
11
658.680000000000
21
469.520000000000
31
0.0
0
LINE
5
755
100
AcDbEntity
8
5-0
6
CONTINUOUS
62
7
100
AcDbLine
10
658.680000000000
20
469.520000000000
30
0.0
11
659.300000000000
21
468.950000000000
31
0.0
0
LINE
5
756
100
AcDbEntity
8
5-0
6
CONTINUOUS
62
7
100
AcDbLine
10
659.300000000000
20
468.950000000000
30
0.0
11
659.910000000000
21
468.390000000000
31
0.0
0
LINE
5
757
100
AcDbEntity
8
5-0
6
CONTINUOUS
62
7
100
AcDbLine
10
659.910000000000
20
468.390000000000
30
0.0
11
660.500000000000
21
467.840000000000
31
0.0
0
LINE
5
758
100
AcDbEntity
8
5-0
6
CONTINUOUS
62
7
100
AcDbLine
10
660.500000000000
20
467.840000000000
30
0.0
11
661.070000000000
21
467.290000000000
31
0.0
0
LINE
5
759
100
AcDbEntity
8
5-0
6
CONTINUOUS
62
7
100
AcDbLine
10
661.070000000000
20
467.290000000000
30
0.0
11
661.630000000000
21
466.750000000000
31
0.0
0
LINE
5
75a
100
AcDbEntity
8
5-0
6
CONTINUOUS
62
7
100
AcDbLine
10
661.630000000000
20
466.750000000000
30
0.0
11
662.180000000000
21
466.220000000000
31
0.0
0
LINE
5
75b
100
AcDbEntity
8
5-0
6
CONTINUOUS
62
7
100
AcDbLine
10
662.180000000000
20
466.220000000000
30
0.0
11
662.710000000000
21
465.700000000000
31
0.0
0
LINE
5
75c
100
AcDbEntity
8
5-0
6
CONTINUOUS
62
7
100
AcDbLine
10
662.710000000000
20
465.700000000000
30
0.0
11
663.220000000000
21
465.190000000000
31
0.0
0
LINE
5
75d
100
AcDbEntity
8
5-0
6
CONTINUOUS
62
7
100
AcDbLine
10
663.220000000000
20
465.190000000000
30
0.0
11
663.710000000000
21
464.690000000000
31
0.0
0
LINE
5
75e
100
AcDbEntity
8
5-0
6
CONTINUOUS
62
7
100
AcDbLine
10
663.710000000000
20
464.690000000000
30
0.0
11
664.190000000000
21
464.210000000000
31
0.0
0
LINE
5
75f
100
AcDbEntity
8
5-0
6
CONTINUOUS
62
7
100
AcDbLine
10
664.190000000000
20
464.210000000000
30
0.0
11
664.660000000000
21
463.740000000000
31
0.0
0
LINE
5
760
100
AcDbEntity
8
5-0
6
CONTINUOUS
62
7
100
AcDbLine
10
664.660000000000
20
463.740000000000
30
0.0
11
665.100000000000
21
463.290000000000
31
0.0
0
LINE
5
761
100
AcDbEntity
8
5-0
6
CONTINUOUS
62
7
100
AcDbLine
10
665.100000000000
20
463.290000000000
30
0.0
11
665.530000000000
21
462.860000000000
31
0.0
0
LINE
5
762
100
AcDbEntity
8
5-0
6
CONTINUOUS
62
7
100
AcDbLine
10
665.530000000000
20
462.860000000000
30
0.0
11
665.950000000000
21
462.450000000000
31
0.0
0
LINE
5
763
100
AcDbEntity
8
5-0
6
CONTINUOUS
62
7
100
AcDbLine
10
665.950000000000
20
462.450000000000
30
0.0
11
666.350000000000
21
462.050000000000
31
0.0
0
LINE
5
764
100
AcDbEntity
8
5-0
6
CONTINUOUS
62
7
100
AcDbLine
10
666.350000000000
20
462.050000000000
30
0.0
11
666.730000000000
21
461.670000000000
31
0.0
0
LINE
5
765
100
AcDbEntity
8
5-0
6
CONTINUOUS
62
7
100
AcDbLine
10
666.730000000000
20
461.670000000000
30
0.0
11
667.100000000000
21
461.310000000000
31
0.0
0
LINE
5
766
100
AcDbEntity
8
5-0
6
CONTINUOUS
62
7
100
AcDbLine
10
667.100000000000
20
461.310000000000
30
0.0
11
667.460000000000
21
460.970000000000
31
0.0
0
LINE
5
767
100
AcDbEntity
8
5-0
6
CONTINUOUS
62
7
100
AcDbLine
10
667.460000000000
20
460.970000000000
30
0.0
11
667.800000000000
21
460.640000000000
31
0.0
0
LINE
5
768
100
AcDbEntity
8
5-0
6
CONTINUOUS
62
7
100
AcDbLine
10
667.800000000000
20
460.640000000000
30
0.0
11
668.130000000000
21
460.330000000000
31
0.0
0
LINE
5
769
100
AcDbEntity
8
5-0
6
CONTINUOUS
62
7
100
AcDbLine
10
668.130000000000
20
460.330000000000
30
0.0
11
668.460000000000
21
460.040000000000
31
0.0
0
LINE
5
76a
100
AcDbEntity
8
5-0
6
CONTINUOUS
62
7
100
AcDbLine
10
668.460000000000
20
460.040000000000
30
0.0
11
668.770000000000
21
459.760000000000
31
0.0
0
LINE
5
76b
100
AcDbEntity
8
5-0
6
CONTINUOUS
62
7
100
AcDbLine
10
668.770000000000
20
459.760000000000
30
0.0
11
669.080000000000
21
459.500000000000
31
0.0
0
LINE
5
76c
100
AcDbEntity
8
5-0
6
CONTINUOUS
62
7
100
AcDbLine
10
669.080000000000
20
459.500000000000
30
0.0
11
669.380000000000
21
459.240000000000
31
0.0
0
LINE
5
76d
100
AcDbEntity
8
5-0
6
CONTINUOUS
62
7
100
AcDbLine
10
669.380000000000
20
459.240000000000
30
0.0
11
669.680000000000
21
459.000000000000
31
0.0
0
LINE
5
76e
100
AcDbEntity
8
5-0
6
CONTINUOUS
62
7
100
AcDbLine
10
669.680000000000
20
459.000000000000
30
0.0
11
669.970000000000
21
458.770000000000
31
0.0
0
LINE
5
76f
100
AcDbEntity
8
5-0
6
CONTINUOUS
62
7
100
AcDbLine
10
669.970000000000
20
458.770000000000
30
0.0
11
670.270000000000
21
458.550000000000
31
0.0
0
LINE
5
770
100
AcDbEntity
8
5-0
6
CONTINUOUS
62
7
100
AcDbLine
10
670.270000000000
20
458.550000000000
30
0.0
11
670.560000000000
21
458.340000000000
31
0.0
0
LINE
5
771
100
AcDbEntity
8
5-0
6
CONTINUOUS
62
7
100
AcDbLine
10
670.560000000000
20
458.340000000000
30
0.0
11
670.850000000000
21
458.130000000000
31
0.0
0
LINE
5
772
100
AcDbEntity
8
5-0
6
CONTINUOUS
62
7
100
AcDbLine
10
670.850000000000
20
458.130000000000
30
0.0
11
671.150000000000
21
457.930000000000
31
0.0
0
LINE
5
773
100
AcDbEntity
8
5-0
6
CONTINUOUS
62
7
100
AcDbLine
10
671.150000000000
20
457.930000000000
30
0.0
11
671.460000000000
21
457.740000000000
31
0.0
0
LINE
5
774
100
AcDbEntity
8
5-0
6
CONTINUOUS
62
7
100
AcDbLine
10
671.460000000000
20
457.740000000000
30
0.0
11
671.770000000000
21
457.550000000000
31
0.0
0
LINE
5
775
100
AcDbEntity
8
5-0
6
CONTINUOUS
62
7
100
AcDbLine
10
671.770000000000
20
457.550000000000
30
0.0
11
672.080000000000
21
457.370000000000
31
0.0
0
LINE
5
776
100
AcDbEntity
8
5-0
6
CONTINUOUS
62
7
100
AcDbLine
10
672.080000000000
20
457.370000000000
30
0.0
11
672.410000000000
21
457.190000000000
31
0.0
0
LINE
5
777
100
AcDbEntity
8
5-0
6
CONTINUOUS
62
7
100
AcDbLine
10
672.410000000000
20
457.190000000000
30
0.0
11
672.750000000000
21
457.010000000000
31
0.0
0
LINE
5
778
100
AcDbEntity
8
5-0
6
CONTINUOUS
62
7
100
AcDbLine
10
672.750000000000
20
457.010000000000
30
0.0
11
673.110000000000
21
456.830000000000
31
0.0
0
LINE
5
779
100
AcDbEntity
8
5-0
6
CONTINUOUS
62
7
100
AcDbLine
10
673.110000000000
20
456.830000000000
30
0.0
11
673.470000000000
21
456.660000000000
31
0.0
0
LINE
5
77a
100
AcDbEntity
8
5-0
6
CONTINUOUS
62
7
100
AcDbLine
10
673.470000000000
20
456.660000000000
30
0.0
11
673.860000000000
21
456.490000000000
31
0.0
0
LINE
5
77b
100
AcDbEntity
8
5-0
6
CONTINUOUS
62
7
100
AcDbLine
10
673.860000000000
20
456.490000000000
30
0.0
11
674.270000000000
21
456.320000000000
31
0.0
0
LINE
5
77c
100
AcDbEntity
8
5-0
6
CONTINUOUS
62
7
100
AcDbLine
10
674.270000000000
20
456.320000000000
30
0.0
11
674.690000000000
21
456.150000000000
31
0.0
0
LINE
5
77d
100
AcDbEntity
8
5-0
6
CONTINUOUS
62
7
100
AcDbLine
10
674.690000000000
20
456.150000000000
30
0.0
11
675.150000000000
21
455.980000000000
31
0.0
0
LINE
5
77e
100
AcDbEntity
8
5-0
6
CONTINUOUS
62
7
100
AcDbLine
10
675.150000000000
20
455.980000000000
30
0.0
11
675.630000000000
21
455.810000000000
31
0.0
0
LINE
5
77f
100
AcDbEntity
8
5-0
6
CONTINUOUS
62
7
100
AcDbLine
10
675.630000000000
20
455.810000000000
30
0.0
11
676.130000000000
21
455.650000000000
31
0.0
0
LINE
5
780
100
AcDbEntity
8
5-0
6
CONTINUOUS
62
7
100
AcDbLine
10
676.130000000000
20
455.650000000000
30
0.0
11
676.680000000000
21
455.490000000000
31
0.0
0
LINE
5
781
100
AcDbEntity
8
5-0
6
CONTINUOUS
62
7
100
AcDbLine
10
676.680000000000
20
455.490000000000
30
0.0
11
677.250000000000
21
455.330000000000
31
0.0
0
LINE
5
782
100
AcDbEntity
8
5-0
6
CONTINUOUS
62
7
100
AcDbLine
10
677.250000000000
20
455.330000000000
30
0.0
11
677.870000000000
21
455.170000000000
31
0.0
0
LINE
5
783
100
AcDbEntity
8
5-0
6
CONTINUOUS
62
7
100
AcDbLine
10
677.870000000000
20
455.170000000000
30
0.0
11
678.530000000000
21
455.020000000000
31
0.0
0
LINE
5
784
100
AcDbEntity
8
5-0
6
CONTINUOUS
62
7
100
AcDbLine
10
678.530000000000
20
455.020000000000
30
0.0
11
679.240000000000
21
454.870000000000
31
0.0
0
LINE
5
785
100
AcDbEntity
8
5-0
6
CONTINUOUS
62
7
100
AcDbLine
10
679.240000000000
20
454.870000000000
30
0.0
11
680.000000000000
21
454.730000000000
31
0.0
0
LINE
5
786
100
AcDbEntity
8
5-0
6
CONTINUOUS
62
7
100
AcDbLine
10
680.000000000000
20
454.730000000000
30
0.0
11
680.820000000000
21
454.600000000000
31
0.0
0
LINE
5
787
100
AcDbEntity
8
5-0
6
CONTINUOUS
62
7
100
AcDbLine
10
680.820000000000
20
454.600000000000
30
0.0
11
681.700000000000
21
454.470000000000
31
0.0
0
LINE
5
788
100
AcDbEntity
8
5-0
6
CONTINUOUS
62
7
100
AcDbLine
10
681.700000000000
20
454.470000000000
30
0.0
11
682.660000000000
21
454.350000000000
31
0.0
0
LINE
5
789
100
AcDbEntity
8
5-0
6
CONTINUOUS
62
7
100
AcDbLine
10
682.660000000000
20
454.350000000000
30
0.0
11
683.710000000000
21
454.240000000000
31
0.0
0
LINE
5
78a
100
AcDbEntity
8
5-0
6
CONTINUOUS
62
7
100
AcDbLine
10
683.710000000000
20
454.240000000000
30
0.0
11
684.860000000000
21
454.140000000000
31
0.0
0
LINE
5
78b
100
AcDbEntity
8
5-0
6
CONTINUOUS
62
7
100
AcDbLine
10
684.860000000000
20
454.140000000000
30
0.0
11
686.110000000000
21
454.050000000000
31
0.0
0
LINE
5
78c
100
AcDbEntity
8
5-0
6
CONTINUOUS
62
7
100
AcDbLine
10
580.730000000000
20
468.860000000000
30
0.0
11
581.850000000000
21
469.040000000000
31
0.0
0
LINE
5
78d
100
AcDbEntity
8
5-0
6
CONTINUOUS
62
7
100
AcDbLine
10
581.850000000000
20
469.040000000000
30
0.0
11
582.660000000000
21
469.200000000000
31
0.0
0
LINE
5
78e
100
AcDbEntity
8
5-0
6
CONTINUOUS
62
7
100
AcDbLine
10
582.660000000000
20
469.200000000000
30
0.0
11
583.350000000000
21
469.350000000000
31
0.0
0
LINE
5
78f
100
AcDbEntity
8
5-0
6
CONTINUOUS
62
7
100
AcDbLine
10
583.350000000000
20
469.350000000000
30
0.0
11
583.930000000000
21
469.500000000000
31
0.0
0
LINE
5
790
100
AcDbEntity
8
5-0
6
CONTINUOUS
62
7
100
AcDbLine
10
583.930000000000
20
469.500000000000
30
0.0
11
584.440000000000
21
469.660000000000
31
0.0
0
LINE
5
791
100
AcDbEntity
8
5-0
6
CONTINUOUS
62
7
100
AcDbLine
10
584.440000000000
20
469.660000000000
30
0.0
11
584.900000000000
21
469.830000000000
31
0.0
0
LINE
5
792
100
AcDbEntity
8
5-0
6
CONTINUOUS
62
7
100
AcDbLine
10
584.900000000000
20
469.830000000000
30
0.0
11
585.340000000000
21
470.010000000000
31
0.0
0
LINE
5
793
100
AcDbEntity
8
5-0
6
CONTINUOUS
62
7
100
AcDbLine
10
585.340000000000
20
470.010000000000
30
0.0
11
585.780000000000
21
470.210000000000
31
0.0
0
LINE
5
794
100
AcDbEntity
8
5-0
6
CONTINUOUS
62
7
100
AcDbLine
10
585.780000000000
20
470.210000000000
30
0.0
11
586.220000000000
21
470.440000000000
31
0.0
0
LINE
5
795
100
AcDbEntity
8
5-0
6
CONTINUOUS
62
7
100
AcDbLine
10
586.220000000000
20
470.440000000000
30
0.0
11
586.680000000000
21
470.700000000000
31
0.0
0
LINE
5
796
100
AcDbEntity
8
5-0
6
CONTINUOUS
62
7
100
AcDbLine
10
586.680000000000
20
470.700000000000
30
0.0
11
587.160000000000
21
471.010000000000
31
0.0
0
LINE
5
797
100
AcDbEntity
8
5-0
6
CONTINUOUS
62
7
100
AcDbLine
10
587.160000000000
20
471.010000000000
30
0.0
11
587.670000000000
21
471.360000000000
31
0.0
0
LINE
5
798
100
AcDbEntity
8
5-0
6
CONTINUOUS
62
7
100
AcDbLine
10
587.670000000000
20
471.360000000000
30
0.0
11
588.210000000000
21
471.760000000000
31
0.0
0
LINE
5
799
100
AcDbEntity
8
5-0
6
CONTINUOUS
62
7
100
AcDbLine
10
588.210000000000
20
471.760000000000
30
0.0
11
588.790000000000
21
472.210000000000
31
0.0
0
LINE
5
79a
100
AcDbEntity
8
5-0
6
CONTINUOUS
62
7
100
AcDbLine
10
588.790000000000
20
472.210000000000
30
0.0
11
589.400000000000
21
472.710000000000
31
0.0
0
LINE
5
79b
100
AcDbEntity
8
5-0
6
CONTINUOUS
62
7
100
AcDbLine
10
589.400000000000
20
472.710000000000
30
0.0
11
590.050000000000
21
473.270000000000
31
0.0
0
LINE
5
79c
100
AcDbEntity
8
5-0
6
CONTINUOUS
62
7
100
AcDbLine
10
590.050000000000
20
473.270000000000
30
0.0
11
590.730000000000
21
473.890000000000
31
0.0
0
LINE
5
79d
100
AcDbEntity
8
5-0
6
CONTINUOUS
62
7
100
AcDbLine
10
590.730000000000
20
473.890000000000
30
0.0
11
591.460000000000
21
474.560000000000
31
0.0
0
LINE
5
79e
100
AcDbEntity
8
5-0
6
CONTINUOUS
62
7
100
AcDbLine
10
591.460000000000
20
474.560000000000
30
0.0
11
592.210000000000
21
475.270000000000
31
0.0
0
LINE
5
79f
100
AcDbEntity
8
5-0
6
CONTINUOUS
62
7
100
AcDbLine
10
592.210000000000
20
475.270000000000
30
0.0
11
593.010000000000
21
476.040000000000
31
0.0
0
LINE
5
7a0
100
AcDbEntity
8
5-0
6
CONTINUOUS
62
7
100
AcDbLine
10
593.010000000000
20
476.040000000000
30
0.0
11
593.830000000000
21
476.830000000000
31
0.0
0
LINE
5
7a1
100
AcDbEntity
8
5-0
6
CONTINUOUS
62
7
100
AcDbLine
10
593.830000000000
20
476.830000000000
30
0.0
11
594.720000000000
21
477.680000000000
31
0.0
0
LINE
5
7a2
100
AcDbEntity
8
5-0
6
CONTINUOUS
62
7
100
AcDbLine
10
594.720000000000
20
477.680000000000
30
0.0
11
595.630000000000
21
478.560000000000
31
0.0
0
LINE
5
7a3
100
AcDbEntity
8
5-0
6
CONTINUOUS
62
7
100
AcDbLine
10
595.630000000000
20
478.560000000000
30
0.0
11
596.590000000000
21
479.470000000000
31
0.0
0
LINE
5
7a4
100
AcDbEntity
8
5-0
6
CONTINUOUS
62
7
100
AcDbLine
10
596.590000000000
20
479.470000000000
30
0.0
11
597.570000000000
21
480.390000000000
31
0.0
0
LINE
5
7a5
100
AcDbEntity
8
5-0
6
CONTINUOUS
62
7
100
AcDbLine
10
597.570000000000
20
480.390000000000
30
0.0
11
598.610000000000
21
481.340000000000
31
0.0
0
LINE
5
7a6
100
AcDbEntity
8
5-0
6
CONTINUOUS
62
7
100
AcDbLine
10
598.610000000000
20
481.340000000000
30
0.0
11
599.680000000000
21
482.290000000000
31
0.0
0
LINE
5
7a7
100
AcDbEntity
8
5-0
6
CONTINUOUS
62
7
100
AcDbLine
10
599.680000000000
20
482.290000000000
30
0.0
11
600.790000000000
21
483.250000000000
31
0.0
0
LINE
5
7a8
100
AcDbEntity
8
5-0
6
CONTINUOUS
62
7
100
AcDbLine
10
600.790000000000
20
483.250000000000
30
0.0
11
601.940000000000
21
484.210000000000
31
0.0
0
LINE
5
7a9
100
AcDbEntity
8
5-0
6
CONTINUOUS
62
7
100
AcDbLine
10
601.940000000000
20
484.210000000000
30
0.0
11
603.130000000000
21
485.160000000000
31
0.0
0
LINE
5
7aa
100
AcDbEntity
8
5-0
6
CONTINUOUS
62
7
100
AcDbLine
10
603.130000000000
20
485.160000000000
30
0.0
11
604.360000000000
21
486.100000000000
31
0.0
0
LINE
5
7ab
100
AcDbEntity
8
5-0
6
CONTINUOUS
62
7
100
AcDbLine
10
604.360000000000
20
486.100000000000
30
0.0
11
605.630000000000
21
487.020000000000
31
0.0
0
LINE
5
7ac
100
AcDbEntity
8
5-0
6
CONTINUOUS
62
7
100
AcDbLine
10
605.630000000000
20
487.020000000000
30
0.0
11
606.930000000000
21
487.930000000000
31
0.0
0
LINE
5
7ad
100
AcDbEntity
8
5-0
6
CONTINUOUS
62
7
100
AcDbLine
10
606.930000000000
20
487.930000000000
30
0.0
11
608.280000000000
21
488.810000000000
31
0.0
0
LINE
5
7ae
100
AcDbEntity
8
5-0
6
CONTINUOUS
62
7
100
AcDbLine
10
608.280000000000
20
488.810000000000
30
0.0
11
609.670000000000
21
489.660000000000
31
0.0
0
LINE
5
7af
100
AcDbEntity
8
5-0
6
CONTINUOUS
62
7
100
AcDbLine
10
609.670000000000
20
489.660000000000
30
0.0
11
611.100000000000
21
490.490000000000
31
0.0
0
LINE
5
7b0
100
AcDbEntity
8
5-0
6
CONTINUOUS
62
7
100
AcDbLine
10
611.100000000000
20
490.490000000000
30
0.0
11
612.570000000000
21
491.270000000000
31
0.0
0
LINE
5
7b1
100
AcDbEntity
8
5-0
6
CONTINUOUS
62
7
100
AcDbLine
10
612.570000000000
20
491.270000000000
30
0.0
11
614.070000000000
21
492.010000000000
31
0.0
0
LINE
5
7b2
100
AcDbEntity
8
5-0
6
CONTINUOUS
62
7
100
AcDbLine
10
614.070000000000
20
492.010000000000
30
0.0
11
615.620000000000
21
492.720000000000
31
0.0
0
LINE
5
7b3
100
AcDbEntity
8
5-0
6
CONTINUOUS
62
7
100
AcDbLine
10
615.620000000000
20
492.720000000000
30
0.0
11
617.210000000000
21
493.370000000000
31
0.0
0
LINE
5
7b4
100
AcDbEntity
8
5-0
6
CONTINUOUS
62
7
100
AcDbLine
10
617.210000000000
20
493.370000000000
30
0.0
11
618.830000000000
21
493.970000000000
31
0.0
0
LINE
5
7b5
100
AcDbEntity
8
5-0
6
CONTINUOUS
62
7
100
AcDbLine
10
618.830000000000
20
493.970000000000
30
0.0
11
620.480000000000
21
494.510000000000
31
0.0
0
LINE
5
7b6
100
AcDbEntity
8
5-0
6
CONTINUOUS
62
7
100
AcDbLine
10
620.480000000000
20
494.510000000000
30
0.0
11
622.160000000000
21
495.000000000000
31
0.0
0
LINE
5
7b7
100
AcDbEntity
8
5-0
6
CONTINUOUS
62
7
100
AcDbLine
10
622.160000000000
20
495.000000000000
30
0.0
11
623.860000000000
21
495.430000000000
31
0.0
0
LINE
5
7b8
100
AcDbEntity
8
5-0
6
CONTINUOUS
62
7
100
AcDbLine
10
623.860000000000
20
495.430000000000
30
0.0
11
625.580000000000
21
495.810000000000
31
0.0
0
LINE
5
7b9
100
AcDbEntity
8
5-0
6
CONTINUOUS
62
7
100
AcDbLine
10
625.580000000000
20
495.810000000000
30
0.0
11
627.330000000000
21
496.150000000000
31
0.0
0
LINE
5
7ba
100
AcDbEntity
8
5-0
6
CONTINUOUS
62
7
100
AcDbLine
10
627.330000000000
20
496.150000000000
30
0.0
11
629.100000000000
21
496.440000000000
31
0.0
0
LINE
5
7bb
100
AcDbEntity
8
5-0
6
CONTINUOUS
62
7
100
AcDbLine
10
629.100000000000
20
496.440000000000
30
0.0
11
630.920000000000
21
496.700000000000
31
0.0
0
LINE
5
7bc
100
AcDbEntity
8
5-0
6
CONTINUOUS
62
7
100
AcDbLine
10
630.920000000000
20
496.700000000000
30
0.0
11
632.710000000000
21
496.930000000000
31
0.0
0
LINE
5
7bd
100
AcDbEntity
8
5-0
6
CONTINUOUS
62
7
100
AcDbLine
10
637.440000000000
20
496.790000000000
30
0.0
11
639.230000000000
21
496.440000000000
31
0.0
0
LINE
5
7be
100
AcDbEntity
8
5-0
6
CONTINUOUS
62
7
100
AcDbLine
10
639.230000000000
20
496.440000000000
30
0.0
11
641.340000000000
21
495.920000000000
31
0.0
0
LINE
5
7bf
100
AcDbEntity
8
5-0
6
CONTINUOUS
62
7
100
AcDbLine
10
641.340000000000
20
495.920000000000
30
0.0
11
643.310000000000
21
495.350000000000
31
0.0
0
LINE
5
7c0
100
AcDbEntity
8
5-0
6
CONTINUOUS
62
7
100
AcDbLine
10
643.310000000000
20
495.350000000000
30
0.0
11
645.170000000000
21
494.730000000000
31
0.0
0
LINE
5
7c1
100
AcDbEntity
8
5-0
6
CONTINUOUS
62
7
100
AcDbLine
10
645.170000000000
20
494.730000000000
30
0.0
11
646.920000000000
21
494.090000000000
31
0.0
0
LINE
5
7c2
100
AcDbEntity
8
5-0
6
CONTINUOUS
62
7
100
AcDbLine
10
646.920000000000
20
494.090000000000
30
0.0
11
648.590000000000
21
493.420000000000
31
0.0
0
LINE
5
7c3
100
AcDbEntity
8
5-0
6
CONTINUOUS
62
7
100
AcDbLine
10
648.590000000000
20
493.420000000000
30
0.0
11
650.170000000000
21
492.740000000000
31
0.0
0
LINE
5
7c4
100
AcDbEntity
8
5-0
6
CONTINUOUS
62
7
100
AcDbLine
10
650.170000000000
20
492.740000000000
30
0.0
11
651.680000000000
21
492.050000000000
31
0.0
0
LINE
5
7c5
100
AcDbEntity
8
5-0
6
CONTINUOUS
62
7
100
AcDbLine
10
651.680000000000
20
492.050000000000
30
0.0
11
653.120000000000
21
491.350000000000
31
0.0
0
LINE
5
7c6
100
AcDbEntity
8
5-0
6
CONTINUOUS
62
7
100
AcDbLine
10
653.120000000000
20
491.350000000000
30
0.0
11
654.490000000000
21
490.640000000000
31
0.0
0
LINE
5
7c7
100
AcDbEntity
8
5-0
6
CONTINUOUS
62
7
100
AcDbLine
10
654.490000000000
20
490.640000000000
30
0.0
11
655.800000000000
21
489.930000000000
31
0.0
0
LINE
5
7c8
100
AcDbEntity
8
5-0
6
CONTINUOUS
62
7
100
AcDbLine
10
655.800000000000
20
489.930000000000
30
0.0
11
657.060000000000
21
489.220000000000
31
0.0
0
LINE
5
7c9
100
AcDbEntity
8
5-0
6
CONTINUOUS
62
7
100
AcDbLine
10
657.060000000000
20
489.220000000000
30
0.0
11
658.260000000000
21
488.500000000000
31
0.0
0
LINE
5
7ca
100
AcDbEntity
8
5-0
6
CONTINUOUS
62
7
100
AcDbLine
10
658.260000000000
20
488.500000000000
30
0.0
11
659.410000000000
21
487.780000000000
31
0.0
0
LINE
5
7cb
100
AcDbEntity
8
5-0
6
CONTINUOUS
62
7
100
AcDbLine
10
659.410000000000
20
487.780000000000
30
0.0
11
660.520000000000
21
487.060000000000
31
0.0
0
LINE
5
7cc
100
AcDbEntity
8
5-0
6
CONTINUOUS
62
7
100
AcDbLine
10
660.520000000000
20
487.060000000000
30
0.0
11
661.580000000000
21
486.340000000000
31
0.0
0
LINE
5
7cd
100
AcDbEntity
8
5-0
6
CONTINUOUS
62
7
100
AcDbLine
10
661.580000000000
20
486.340000000000
30
0.0
11
662.590000000000
21
485.620000000000
31
0.0
0
LINE
5
7ce
100
AcDbEntity
8
5-0
6
CONTINUOUS
62
7
100
AcDbLine
10
662.590000000000
20
485.620000000000
30
0.0
11
663.570000000000
21
484.900000000000
31
0.0
0
LINE
5
7cf
100
AcDbEntity
8
5-0
6
CONTINUOUS
62
7
100
AcDbLine
10
663.570000000000
20
484.900000000000
30
0.0
11
664.510000000000
21
484.180000000000
31
0.0
0
LINE
5
7d0
100
AcDbEntity
8
5-0
6
CONTINUOUS
62
7
100
AcDbLine
10
664.510000000000
20
484.180000000000
30
0.0
11
665.410000000000
21
483.470000000000
31
0.0
0
LINE
5
7d1
100
AcDbEntity
8
5-0
6
CONTINUOUS
62
7
100
AcDbLine
10
665.410000000000
20
483.470000000000
30
0.0
11
666.280000000000
21
482.760000000000
31
0.0
0
LINE
5
7d2
100
AcDbEntity
8
5-0
6
CONTINUOUS
62
7
100
AcDbLine
10
666.280000000000
20
482.760000000000
30
0.0
11
667.110000000000
21
482.070000000000
31
0.0
0
LINE
5
7d3
100
AcDbEntity
8
5-0
6
CONTINUOUS
62
7
100
AcDbLine
10
667.110000000000
20
482.070000000000
30
0.0
11
667.910000000000
21
481.380000000000
31
0.0
0
LINE
5
7d4
100
AcDbEntity
8
5-0
6
CONTINUOUS
62
7
100
AcDbLine
10
667.910000000000
20
481.380000000000
30
0.0
11
668.680000000000
21
480.700000000000
31
0.0
0
LINE
5
7d5
100
AcDbEntity
8
5-0
6
CONTINUOUS
62
7
100
AcDbLine
10
668.680000000000
20
480.700000000000
30
0.0
11
669.420000000000
21
480.030000000000
31
0.0
0
LINE
5
7d6
100
AcDbEntity
8
5-0
6
CONTINUOUS
62
7
100
AcDbLine
10
669.420000000000
20
480.030000000000
30
0.0
11
670.120000000000
21
479.380000000000
31
0.0
0
LINE
5
7d7
100
AcDbEntity
8
5-0
6
CONTINUOUS
62
7
100
AcDbLine
10
670.120000000000
20
479.380000000000
30
0.0
11
670.810000000000
21
478.740000000000
31
0.0
0
LINE
5
7d8
100
AcDbEntity
8
5-0
6
CONTINUOUS
62
7
100
AcDbLine
10
670.810000000000
20
478.740000000000
30
0.0
11
671.460000000000
21
478.110000000000
31
0.0
0
LINE
5
7d9
100
AcDbEntity
8
5-0
6
CONTINUOUS
62
7
100
AcDbLine
10
671.460000000000
20
478.110000000000
30
0.0
11
672.090000000000
21
477.500000000000
31
0.0
0
LINE
5
7da
100
AcDbEntity
8
5-0
6
CONTINUOUS
62
7
100
AcDbLine
10
672.090000000000
20
477.500000000000
30
0.0
11
672.690000000000
21
476.920000000000
31
0.0
0
LINE
5
7db
100
AcDbEntity
8
5-0
6
CONTINUOUS
62
7
100
AcDbLine
10
672.690000000000
20
476.920000000000
30
0.0
11
673.270000000000
21
476.350000000000
31
0.0
0
LINE
5
7dc
100
AcDbEntity
8
5-0
6
CONTINUOUS
62
7
100
AcDbLine
10
673.270000000000
20
476.350000000000
30
0.0
11
673.800000000000
21
475.820000000000
31
0.0
0
LINE
5
7dd
100
AcDbEntity
8
5-0
6
CONTINUOUS
62
7
100
AcDbLine
10
673.800000000000
20
475.820000000000
30
0.0
11
674.340000000000
21
475.280000000000
31
0.0
0
LINE
5
7de
100
AcDbEntity
8
5-0
6
CONTINUOUS
62
7
100
AcDbLine
10
674.340000000000
20
475.280000000000
30
0.0
11
674.840000000000
21
474.770000000000
31
0.0
0
LINE
5
7df
100
AcDbEntity
8
5-0
6
CONTINUOUS
62
7
100
AcDbLine
10
674.840000000000
20
474.770000000000
30
0.0
11
675.750000000000
21
473.860000000000
31
0.0
0
LINE
5
7e0
100
AcDbEntity
8
5-0
6
CONTINUOUS
62
7
100
AcDbLine
10
675.750000000000
20
473.860000000000
30
0.0
11
676.150000000000
21
473.460000000000
31
0.0
0
LINE
5
7e1
100
AcDbEntity
8
5-0
6
CONTINUOUS
62
7
100
AcDbLine
10
676.150000000000
20
473.460000000000
30
0.0
11
676.540000000000
21
473.060000000000
31
0.0
0
LINE
5
7e2
100
AcDbEntity
8
5-0
6
CONTINUOUS
62
7
100
AcDbLine
10
676.540000000000
20
473.060000000000
30
0.0
11
676.900000000000
21
472.710000000000
31
0.0
0
LINE
5
7e3
100
AcDbEntity
8
5-0
6
CONTINUOUS
62
7
100
AcDbLine
10
676.900000000000
20
472.710000000000
30
0.0
11
677.230000000000
21
472.380000000000
31
0.0
0
LINE
5
7e4
100
AcDbEntity
8
5-0
6
CONTINUOUS
62
7
100
AcDbLine
10
677.230000000000
20
472.380000000000
30
0.0
11
677.530000000000
21
472.090000000000
31
0.0
0
LINE
5
7e5
100
AcDbEntity
8
5-0
6
CONTINUOUS
62
7
100
AcDbLine
10
677.530000000000
20
472.090000000000
30
0.0
11
677.810000000000
21
471.820000000000
31
0.0
0
LINE
5
7e6
100
AcDbEntity
8
5-0
6
CONTINUOUS
62
7
100
AcDbLine
10
677.810000000000
20
471.820000000000
30
0.0
11
678.060000000000
21
471.590000000000
31
0.0
0
LINE
5
7e7
100
AcDbEntity
8
5-0
6
CONTINUOUS
62
7
100
AcDbLine
10
678.060000000000
20
471.590000000000
30
0.0
11
678.280000000000
21
471.380000000000
31
0.0
0
LINE
5
7e8
100
AcDbEntity
8
5-0
6
CONTINUOUS
62
7
100
AcDbLine
10
678.280000000000
20
471.380000000000
30
0.0
11
678.470000000000
21
471.210000000000
31
0.0
0
LINE
5
7e9
100
AcDbEntity
8
5-0
6
CONTINUOUS
62
7
100
AcDbLine
10
678.470000000000
20
471.210000000000
30
0.0
11
678.650000000000
21
471.050000000000
31
0.0
0
LINE
5
7ea
100
AcDbEntity
8
5-0
6
CONTINUOUS
62
7
100
AcDbLine
10
678.650000000000
20
471.050000000000
30
0.0
11
678.800000000000
21
470.920000000000
31
0.0
0
LINE
5
7eb
100
AcDbEntity
8
5-0
6
CONTINUOUS
62
7
100
AcDbLine
10
678.800000000000
20
470.920000000000
30
0.0
11
678.920000000000
21
470.820000000000
31
0.0
0
LINE
5
7ec
100
AcDbEntity
8
5-0
6
CONTINUOUS
62
7
100
AcDbLine
10
678.920000000000
20
470.820000000000
30
0.0
11
679.020000000000
21
470.740000000000
31
0.0
0
LINE
5
7ed
100
AcDbEntity
8
5-0
6
CONTINUOUS
62
7
100
AcDbLine
10
679.020000000000
20
470.740000000000
30
0.0
11
679.110000000000
21
470.670000000000
31
0.0
0
LINE
5
7ee
100
AcDbEntity
8
5-0
6
CONTINUOUS
62
7
100
AcDbLine
10
679.110000000000
20
470.670000000000
30
0.0
11
679.180000000000
21
470.610000000000
31
0.0
0
LINE
5
7ef
100
AcDbEntity
8
5-0
6
CONTINUOUS
62
7
100
AcDbLine
10
679.180000000000
20
470.610000000000
30
0.0
11
679.250000000000
21
470.570000000000
31
0.0
0
LINE
5
7f0
100
AcDbEntity
8
5-0
6
CONTINUOUS
62
7
100
AcDbLine
10
679.250000000000
20
470.570000000000
30
0.0
11
679.300000000000
21
470.530000000000
31
0.0
0
LINE
5
7f1
100
AcDbEntity
8
5-0
6
CONTINUOUS
62
7
100
AcDbLine
10
679.300000000000
20
470.530000000000
30
0.0
11
679.340000000000
21
470.500000000000
31
0.0
0
LINE
5
7f2
100
AcDbEntity
8
5-0
6
CONTINUOUS
62
7
100
AcDbLine
10
679.340000000000
20
470.500000000000
30
0.0
11
679.390000000000
21
470.470000000000
31
0.0
0
LINE
5
7f3
100
AcDbEntity
8
5-0
6
CONTINUOUS
62
7
100
AcDbLine
10
679.390000000000
20
470.470000000000
30
0.0
11
679.430000000000
21
470.450000000000
31
0.0
0
LINE
5
7f4
100
AcDbEntity
8
5-0
6
CONTINUOUS
62
7
100
AcDbLine
10
679.430000000000
20
470.450000000000
30
0.0
11
679.480000000000
21
470.420000000000
31
0.0
0
LINE
5
7f5
100
AcDbEntity
8
5-0
6
CONTINUOUS
62
7
100
AcDbLine
10
679.480000000000
20
470.420000000000
30
0.0
11
679.530000000000
21
470.390000000000
31
0.0
0
LINE
5
7f6
100
AcDbEntity
8
5-0
6
CONTINUOUS
62
7
100
AcDbLine
10
679.530000000000
20
470.390000000000
30
0.0
11
679.580000000000
21
470.360000000000
31
0.0
0
LINE
5
7f7
100
AcDbEntity
8
5-0
6
CONTINUOUS
62
7
100
AcDbLine
10
679.580000000000
20
470.360000000000
30
0.0
11
679.650000000000
21
470.330000000000
31
0.0
0
LINE
5
7f8
100
AcDbEntity
8
5-0
6
CONTINUOUS
62
7
100
AcDbLine
10
679.650000000000
20
470.330000000000
30
0.0
11
679.730000000000
21
470.290000000000
31
0.0
0
LINE
5
7f9
100
AcDbEntity
8
5-0
6
CONTINUOUS
62
7
100
AcDbLine
10
679.730000000000
20
470.290000000000
30
0.0
11
679.820000000000
21
470.250000000000
31
0.0
0
LINE
5
7fa
100
AcDbEntity
8
5-0
6
CONTINUOUS
62
7
100
AcDbLine
10
679.820000000000
20
470.250000000000
30
0.0
11
679.930000000000
21
470.210000000000
31
0.0
0
LINE
5
7fb
100
AcDbEntity
8
5-0
6
CONTINUOUS
62
7
100
AcDbLine
10
679.930000000000
20
470.210000000000
30
0.0
11
680.060000000000
21
470.150000000000
31
0.0
0
LINE
5
7fc
100
AcDbEntity
8
5-0
6
CONTINUOUS
62
7
100
AcDbLine
10
680.060000000000
20
470.150000000000
30
0.0
11
680.210000000000
21
470.100000000000
31
0.0
0
LINE
5
7fd
100
AcDbEntity
8
5-0
6
CONTINUOUS
62
7
100
AcDbLine
10
680.210000000000
20
470.100000000000
30
0.0
11
680.380000000000
21
470.040000000000
31
0.0
0
LINE
5
7fe
100
AcDbEntity
8
5-0
6
CONTINUOUS
62
7
100
AcDbLine
10
680.380000000000
20
470.040000000000
30
0.0
11
680.580000000000
21
469.980000000000
31
0.0
0
LINE
5
7ff
100
AcDbEntity
8
5-0
6
CONTINUOUS
62
7
100
AcDbLine
10
680.580000000000
20
469.980000000000
30
0.0
11
680.810000000000
21
469.910000000000
31
0.0
0
LINE
5
800
100
AcDbEntity
8
5-0
6
CONTINUOUS
62
7
100
AcDbLine
10
680.810000000000
20
469.910000000000
30
0.0
11
681.080000000000
21
469.830000000000
31
0.0
0
LINE
5
801
100
AcDbEntity
8
5-0
6
CONTINUOUS
62
7
100
AcDbLine
10
681.080000000000
20
469.830000000000
30
0.0
11
681.380000000000
21
469.760000000000
31
0.0
0
LINE
5
802
100
AcDbEntity
8
5-0
6
CONTINUOUS
62
7
100
AcDbLine
10
681.380000000000
20
469.760000000000
30
0.0
11
681.730000000000
21
469.680000000000
31
0.0
0
LINE
5
803
100
AcDbEntity
8
5-0
6
CONTINUOUS
62
7
100
AcDbLine
10
681.730000000000
20
469.680000000000
30
0.0
11
682.130000000000
21
469.590000000000
31
0.0
0
LINE
5
804
100
AcDbEntity
8
5-0
6
CONTINUOUS
62
7
100
AcDbLine
10
682.130000000000
20
469.590000000000
30
0.0
11
682.590000000000
21
469.510000000000
31
0.0
0
LINE
5
805
100
AcDbEntity
8
5-0
6
CONTINUOUS
62
7
100
AcDbLine
10
682.590000000000
20
469.510000000000
30
0.0
11
683.100000000000
21
469.420000000000
31
0.0
0
LINE
5
806
100
AcDbEntity
8
5-0
6
CONTINUOUS
62
7
100
AcDbLine
10
683.100000000000
20
469.420000000000
30
0.0
11
683.700000000000
21
469.340000000000
31
0.0
0
LINE
5
807
100
AcDbEntity
8
5-0
6
CONTINUOUS
62
7
100
AcDbLine
10
683.700000000000
20
469.340000000000
30
0.0
11
684.370000000000
21
469.250000000000
31
0.0
0
LINE
5
808
100
AcDbEntity
8
5-0
6
CONTINUOUS
62
7
100
AcDbLine
10
684.370000000000
20
469.250000000000
30
0.0
11
685.150000000000
21
469.170000000000
31
0.0
0
LINE
5
809
100
AcDbEntity
8
5-0
6
CONTINUOUS
62
7
100
AcDbLine
10
685.150000000000
20
469.170000000000
30
0.0
11
686.030000000000
21
469.100000000000
31
0.0
0
LINE
5
80a
100
AcDbEntity
8
5-0
6
CONTINUOUS
62
7
100
AcDbLine
10
686.030000000000
20
469.100000000000
30
0.0
11
687.160000000000
21
469.020000000000
31
0.0
0
LINE
5
80b
100
AcDbEntity
8
5-0
6
CONTINUOUS
62
7
100
AcDbLine
10
632.710000000000
20
496.930000000000
30
0.0
11
632.980000000000
21
496.950000000000
31
0.0
0
LINE
5
80c
100
AcDbEntity
8
5-0
6
CONTINUOUS
62
7
100
AcDbLine
10
632.980000000000
20
496.950000000000
30
0.0
11
633.240000000000
21
496.970000000000
31
0.0
0
LINE
5
80d
100
AcDbEntity
8
5-0
6
CONTINUOUS
62
7
100
AcDbLine
10
633.240000000000
20
496.970000000000
30
0.0
11
633.500000000000
21
496.980000000000
31
0.0
0
LINE
5
80e
100
AcDbEntity
8
5-0
6
CONTINUOUS
62
7
100
AcDbLine
10
633.500000000000
20
496.980000000000
30
0.0
11
633.740000000000
21
496.990000000000
31
0.0
0
LINE
5
80f
100
AcDbEntity
8
5-0
6
CONTINUOUS
62
7
100
AcDbLine
10
633.740000000000
20
496.990000000000
30
0.0
11
633.980000000000
21
497.000000000000
31
0.0
0
LINE
5
810
100
AcDbEntity
8
5-0
6
CONTINUOUS
62
7
100
AcDbLine
10
633.980000000000
20
497.000000000000
30
0.0
11
634.220000000000
21
497.010000000000
31
0.0
0
LINE
5
811
100
AcDbEntity
8
5-0
6
CONTINUOUS
62
7
100
AcDbLine
10
634.220000000000
20
497.010000000000
30
0.0
11
634.450000000000
21
497.010000000000
31
0.0
0
LINE
5
812
100
AcDbEntity
8
5-0
6
CONTINUOUS
62
7
100
AcDbLine
10
634.450000000000
20
497.010000000000
30
0.0
11
634.680000000000
21
497.010000000000
31
0.0
0
LINE
5
813
100
AcDbEntity
8
5-0
6
CONTINUOUS
62
7
100
AcDbLine
10
634.680000000000
20
497.010000000000
30
0.0
11
634.900000000000
21
497.010000000000
31
0.0
0
LINE
5
814
100
AcDbEntity
8
5-0
6
CONTINUOUS
62
7
100
AcDbLine
10
634.900000000000
20
497.010000000000
30
0.0
11
635.120000000000
21
497.010000000000
31
0.0
0
LINE
5
815
100
AcDbEntity
8
5-0
6
CONTINUOUS
62
7
100
AcDbLine
10
635.120000000000
20
497.010000000000
30
0.0
11
635.330000000000
21
497.010000000000
31
0.0
0
LINE
5
816
100
AcDbEntity
8
5-0
6
CONTINUOUS
62
7
100
AcDbLine
10
635.330000000000
20
497.010000000000
30
0.0
11
635.540000000000
21
497.000000000000
31
0.0
0
LINE
5
817
100
AcDbEntity
8
5-0
6
CONTINUOUS
62
7
100
AcDbLine
10
635.540000000000
20
497.000000000000
30
0.0
11
635.750000000000
21
496.990000000000
31
0.0
0
LINE
5
818
100
AcDbEntity
8
5-0
6
CONTINUOUS
62
7
100
AcDbLine
10
635.750000000000
20
496.990000000000
30
0.0
11
635.940000000000
21
496.980000000000
31
0.0
0
LINE
5
819
100
AcDbEntity
8
5-0
6
CONTINUOUS
62
7
100
AcDbLine
10
635.940000000000
20
496.980000000000
30
0.0
11
636.130000000000
21
496.970000000000
31
0.0
0
LINE
5
81a
100
AcDbEntity
8
5-0
6
CONTINUOUS
62
7
100
AcDbLine
10
636.130000000000
20
496.970000000000
30
0.0
11
636.310000000000
21
496.960000000000
31
0.0
0
LINE
5
81b
100
AcDbEntity
8
5-0
6
CONTINUOUS
62
7
100
AcDbLine
10
636.310000000000
20
496.960000000000
30
0.0
11
636.490000000000
21
496.950000000000
31
0.0
0
LINE
5
81c
100
AcDbEntity
8
5-0
6
CONTINUOUS
62
7
100
AcDbLine
10
636.490000000000
20
496.950000000000
30
0.0
11
636.650000000000
21
496.930000000000
31
0.0
0
LINE
5
81d
100
AcDbEntity
8
5-0
6
CONTINUOUS
62
7
100
AcDbLine
10
636.650000000000
20
496.930000000000
30
0.0
11
636.800000000000
21
496.910000000000
31
0.0
0
LINE
5
81e
100
AcDbEntity
8
5-0
6
CONTINUOUS
62
7
100
AcDbLine
10
636.800000000000
20
496.910000000000
30
0.0
11
636.950000000000
21
496.890000000000
31
0.0
0
LINE
5
81f
100
AcDbEntity
8
5-0
6
CONTINUOUS
62
7
100
AcDbLine
10
636.950000000000
20
496.890000000000
30
0.0
11
637.080000000000
21
496.870000000000
31
0.0
0
LINE
5
820
100
AcDbEntity
8
5-0
6
CONTINUOUS
62
7
100
AcDbLine
10
637.080000000000
20
496.870000000000
30
0.0
11
637.210000000000
21
496.840000000000
31
0.0
0
LINE
5
821
100
AcDbEntity
8
5-0
6
CONTINUOUS
62
7
100
AcDbLine
10
637.210000000000
20
496.840000000000
30
0.0
11
637.330000000000
21
496.820000000000
31
0.0
0
LINE
5
822
100
AcDbEntity
8
5-0
6
CONTINUOUS
62
7
100
AcDbLine
10
637.330000000000
20
496.820000000000
30
0.0
11
637.440000000000
21
496.790000000000
31
0.0
0
LINE
5
823
100
AcDbEntity
8
5-0
6
CONTINUOUS
62
7
100
AcDbLine
10
507.030000000000
20
469.050000000000
30
0.0
11
508.220000000000
21
468.610000000000
31
0.0
0
LINE
5
824
100
AcDbEntity
8
5-0
6
CONTINUOUS
62
7
100
AcDbLine
10
508.220000000000
20
468.610000000000
30
0.0
11
509.480000000000
21
468.160000000000
31
0.0
0
LINE
5
825
100
AcDbEntity
8
5-0
6
CONTINUOUS
62
7
100
AcDbLine
10
509.480000000000
20
468.160000000000
30
0.0
11
510.800000000000
21
467.690000000000
31
0.0
0
LINE
5
826
100
AcDbEntity
8
5-0
6
CONTINUOUS
62
7
100
AcDbLine
10
510.800000000000
20
467.690000000000
30
0.0
11
512.170000000000
21
467.220000000000
31
0.0
0
LINE
5
827
100
AcDbEntity
8
5-0
6
CONTINUOUS
62
7
100
AcDbLine
10
512.170000000000
20
467.220000000000
30
0.0
11
513.580000000000
21
466.750000000000
31
0.0
0
LINE
5
828
100
AcDbEntity
8
5-0
6
CONTINUOUS
62
7
100
AcDbLine
10
513.580000000000
20
466.750000000000
30
0.0
11
515.010000000000
21
466.290000000000
31
0.0
0
LINE
5
829
100
AcDbEntity
8
5-0
6
CONTINUOUS
62
7
100
AcDbLine
10
515.010000000000
20
466.290000000000
30
0.0
11
516.470000000000
21
465.830000000000
31
0.0
0
LINE
5
82a
100
AcDbEntity
8
5-0
6
CONTINUOUS
62
7
100
AcDbLine
10
516.470000000000
20
465.830000000000
30
0.0
11
517.940000000000
21
465.390000000000
31
0.0
0
LINE
5
82b
100
AcDbEntity
8
5-0
6
CONTINUOUS
62
7
100
AcDbLine
10
517.940000000000
20
465.390000000000
30
0.0
11
519.420000000000
21
464.950000000000
31
0.0
0
LINE
5
82c
100
AcDbEntity
8
5-0
6
CONTINUOUS
62
7
100
AcDbLine
10
519.420000000000
20
464.950000000000
30
0.0
11
520.900000000000
21
464.540000000000
31
0.0
0
LINE
5
82d
100
AcDbEntity
8
5-0
6
CONTINUOUS
62
7
100
AcDbLine
10
520.900000000000
20
464.540000000000
30
0.0
11
522.390000000000
21
464.150000000000
31
0.0
0
LINE
5
82e
100
AcDbEntity
8
5-0
6
CONTINUOUS
62
7
100
AcDbLine
10
522.390000000000
20
464.150000000000
30
0.0
11
523.860000000000
21
463.780000000000
31
0.0
0
LINE
5
82f
100
AcDbEntity
8
5-0
6
CONTINUOUS
62
7
100
AcDbLine
10
523.860000000000
20
463.780000000000
30
0.0
11
525.340000000000
21
463.440000000000
31
0.0
0
LINE
5
830
100
AcDbEntity
8
5-0
6
CONTINUOUS
62
7
100
AcDbLine
10
525.340000000000
20
463.440000000000
30
0.0
11
526.800000000000
21
463.130000000000
31
0.0
0
LINE
5
831
100
AcDbEntity
8
5-0
6
CONTINUOUS
62
7
100
AcDbLine
10
526.800000000000
20
463.130000000000
30
0.0
11
528.260000000000
21
462.850000000000
31
0.0
0
LINE
5
832
100
AcDbEntity
8
5-0
6
CONTINUOUS
62
7
100
AcDbLine
10
528.260000000000
20
462.850000000000
30
0.0
11
529.710000000000
21
462.600000000000
31
0.0
0
LINE
5
833
100
AcDbEntity
8
5-0
6
CONTINUOUS
62
7
100
AcDbLine
10
529.710000000000
20
462.600000000000
30
0.0
11
531.150000000000
21
462.380000000000
31
0.0
0
LINE
5
834
100
AcDbEntity
8
5-0
6
CONTINUOUS
62
7
100
AcDbLine
10
531.150000000000
20
462.380000000000
30
0.0
11
532.590000000000
21
462.200000000000
31
0.0
0
LINE
5
835
100
AcDbEntity
8
5-0
6
CONTINUOUS
62
7
100
AcDbLine
10
532.590000000000
20
462.200000000000
30
0.0
11
534.030000000000
21
462.050000000000
31
0.0
0
LINE
5
836
100
AcDbEntity
8
5-0
6
CONTINUOUS
62
7
100
AcDbLine
10
534.030000000000
20
460.050000000000
30
0.0
11
534.570000000000
21
459.790000000000
31
0.0
0
LINE
5
837
100
AcDbEntity
8
5-0
6
CONTINUOUS
62
7
100
AcDbLine
10
534.570000000000
20
459.790000000000
30
0.0
11
535.050000000000
21
459.540000000000
31
0.0
0
LINE
5
838
100
AcDbEntity
8
5-0
6
CONTINUOUS
62
7
100
AcDbLine
10
535.050000000000
20
459.540000000000
30
0.0
11
535.490000000000
21
459.330000000000
31
0.0
0
LINE
5
839
100
AcDbEntity
8
5-0
6
CONTINUOUS
62
7
100
AcDbLine
10
535.490000000000
20
459.330000000000
30
0.0
11
535.900000000000
21
459.130000000000
31
0.0
0
LINE
5
83a
100
AcDbEntity
8
5-0
6
CONTINUOUS
62
7
100
AcDbLine
10
535.900000000000
20
459.130000000000
30
0.0
11
536.280000000000
21
458.940000000000
31
0.0
0
LINE
5
83b
100
AcDbEntity
8
5-0
6
CONTINUOUS
62
7
100
AcDbLine
10
536.280000000000
20
458.940000000000
30
0.0
11
536.640000000000
21
458.770000000000
31
0.0
0
LINE
5
83c
100
AcDbEntity
8
5-0
6
CONTINUOUS
62
7
100
AcDbLine
10
536.640000000000
20
458.770000000000
30
0.0
11
536.980000000000
21
458.610000000000
31
0.0
0
LINE
5
83d
100
AcDbEntity
8
5-0
6
CONTINUOUS
62
7
100
AcDbLine
10
536.980000000000
20
458.610000000000
30
0.0
11
537.310000000000
21
458.460000000000
31
0.0
0
LINE
5
83e
100
AcDbEntity
8
5-0
6
CONTINUOUS
62
7
100
AcDbLine
10
537.310000000000
20
458.460000000000
30
0.0
11
537.620000000000
21
458.310000000000
31
0.0
0
LINE
5
83f
100
AcDbEntity
8
5-0
6
CONTINUOUS
62
7
100
AcDbLine
10
537.620000000000
20
458.310000000000
30
0.0
11
537.930000000000
21
458.180000000000
31
0.0
0
LINE
5
840
100
AcDbEntity
8
5-0
6
CONTINUOUS
62
7
100
AcDbLine
10
537.930000000000
20
458.180000000000
30
0.0
11
538.230000000000
21
458.040000000000
31
0.0
0
LINE
5
841
100
AcDbEntity
8
5-0
6
CONTINUOUS
62
7
100
AcDbLine
10
538.230000000000
20
458.040000000000
30
0.0
11
538.520000000000
21
457.920000000000
31
0.0
0
LINE
5
842
100
AcDbEntity
8
5-0
6
CONTINUOUS
62
7
100
AcDbLine
10
538.520000000000
20
457.920000000000
30
0.0
11
538.810000000000
21
457.800000000000
31
0.0
0
LINE
5
843
100
AcDbEntity
8
5-0
6
CONTINUOUS
62
7
100
AcDbLine
10
538.810000000000
20
457.800000000000
30
0.0
11
539.100000000000
21
457.680000000000
31
0.0
0
LINE
5
844
100
AcDbEntity
8
5-0
6
CONTINUOUS
62
7
100
AcDbLine
10
539.100000000000
20
457.680000000000
30
0.0
11
539.390000000000
21
457.560000000000
31
0.0
0
LINE
5
845
100
AcDbEntity
8
5-0
6
CONTINUOUS
62
7
100
AcDbLine
10
539.390000000000
20
457.560000000000
30
0.0
11
539.670000000000
21
457.450000000000
31
0.0
0
LINE
5
846
100
AcDbEntity
8
5-0
6
CONTINUOUS
62
7
100
AcDbLine
10
539.670000000000
20
457.450000000000
30
0.0
11
539.960000000000
21
457.350000000000
31
0.0
0
LINE
5
847
100
AcDbEntity
8
5-0
6
CONTINUOUS
62
7
100
AcDbLine
10
539.960000000000
20
457.350000000000
30
0.0
11
540.240000000000
21
457.240000000000
31
0.0
0
LINE
5
848
100
AcDbEntity
8
5-0
6
CONTINUOUS
62
7
100
AcDbLine
10
540.240000000000
20
457.240000000000
30
0.0
11
540.530000000000
21
457.140000000000
31
0.0
0
LINE
5
849
100
AcDbEntity
8
5-0
6
CONTINUOUS
62
7
100
AcDbLine
10
540.530000000000
20
457.140000000000
30
0.0
11
540.830000000000
21
457.040000000000
31
0.0
0
LINE
5
84a
100
AcDbEntity
8
5-0
6
CONTINUOUS
62
7
100
AcDbLine
10
540.830000000000
20
457.040000000000
30
0.0
11
541.120000000000
21
456.940000000000
31
0.0
0
LINE
5
84b
100
AcDbEntity
8
5-0
6
CONTINUOUS
62
7
100
AcDbLine
10
541.120000000000
20
456.940000000000
30
0.0
11
541.420000000000
21
456.840000000000
31
0.0
0
LINE
5
84c
100
AcDbEntity
8
5-0
6
CONTINUOUS
62
7
100
AcDbLine
10
541.420000000000
20
456.840000000000
30
0.0
11
541.720000000000
21
456.750000000000
31
0.0
0
LINE
5
84d
100
AcDbEntity
8
5-0
6
CONTINUOUS
62
7
100
AcDbLine
10
541.720000000000
20
456.750000000000
30
0.0
11
542.030000000000
21
456.660000000000
31
0.0
0
LINE
5
84e
100
AcDbEntity
8
5-0
6
CONTINUOUS
62
7
100
AcDbLine
10
542.030000000000
20
456.660000000000
30
0.0
11
542.340000000000
21
456.570000000000
31
0.0
0
LINE
5
84f
100
AcDbEntity
8
5-0
6
CONTINUOUS
62
7
100
AcDbLine
10
542.340000000000
20
456.570000000000
30
0.0
11
542.650000000000
21
456.480000000000
31
0.0
0
LINE
5
850
100
AcDbEntity
8
5-0
6
CONTINUOUS
62
7
100
AcDbLine
10
542.650000000000
20
456.480000000000
30
0.0
11
542.970000000000
21
456.390000000000
31
0.0
0
LINE
5
851
100
AcDbEntity
8
5-0
6
CONTINUOUS
62
7
100
AcDbLine
10
542.970000000000
20
456.390000000000
30
0.0
11
543.290000000000
21
456.310000000000
31
0.0
0
LINE
5
852
100
AcDbEntity
8
5-0
6
CONTINUOUS
62
7
100
AcDbLine
10
543.290000000000
20
456.310000000000
30
0.0
11
543.620000000000
21
456.220000000000
31
0.0
0
LINE
5
853
100
AcDbEntity
8
5-0
6
CONTINUOUS
62
7
100
AcDbLine
10
543.620000000000
20
456.220000000000
30
0.0
11
543.960000000000
21
456.140000000000
31
0.0
0
LINE
5
854
100
AcDbEntity
8
5-0
6
CONTINUOUS
62
7
100
AcDbLine
10
543.960000000000
20
456.140000000000
30
0.0
11
544.300000000000
21
456.060000000000
31
0.0
0
LINE
5
855
100
AcDbEntity
8
5-0
6
CONTINUOUS
62
7
100
AcDbLine
10
544.300000000000
20
456.060000000000
30
0.0
11
544.650000000000
21
455.990000000000
31
0.0
0
LINE
5
856
100
AcDbEntity
8
5-0
6
CONTINUOUS
62
7
100
AcDbLine
10
544.650000000000
20
455.990000000000
30
0.0
11
545.000000000000
21
455.910000000000
31
0.0
0
LINE
5
857
100
AcDbEntity
8
5-0
6
CONTINUOUS
62
7
100
AcDbLine
10
545.000000000000
20
455.910000000000
30
0.0
11
545.370000000000
21
455.840000000000
31
0.0
0
LINE
5
858
100
AcDbEntity
8
5-0
6
CONTINUOUS
62
7
100
AcDbLine
10
545.370000000000
20
455.840000000000
30
0.0
11
545.750000000000
21
455.770000000000
31
0.0
0
LINE
5
859
100
AcDbEntity
8
5-0
6
CONTINUOUS
62
7
100
AcDbLine
10
545.750000000000
20
455.770000000000
30
0.0
11
546.140000000000
21
455.700000000000
31
0.0
0
LINE
5
85a
100
AcDbEntity
8
5-0
6
CONTINUOUS
62
7
100
AcDbLine
10
546.140000000000
20
455.700000000000
30
0.0
11
546.550000000000
21
455.630000000000
31
0.0
0
LINE
5
85b
100
AcDbEntity
8
5-0
6
CONTINUOUS
62
7
100
AcDbLine
10
546.550000000000
20
455.630000000000
30
0.0
11
546.980000000000
21
455.570000000000
31
0.0
0
LINE
5
85c
100
AcDbEntity
8
5-0
6
CONTINUOUS
62
7
100
AcDbLine
10
546.980000000000
20
455.570000000000
30
0.0
11
547.430000000000
21
455.510000000000
31
0.0
0
LINE
5
85d
100
AcDbEntity
8
5-0
6
CONTINUOUS
62
7
100
AcDbLine
10
547.430000000000
20
455.510000000000
30
0.0
11
547.900000000000
21
455.450000000000
31
0.0
0
LINE
5
85e
100
AcDbEntity
8
5-0
6
CONTINUOUS
62
7
100
AcDbLine
10
547.900000000000
20
455.450000000000
30
0.0
11
548.410000000000
21
455.390000000000
31
0.0
0
LINE
5
85f
100
AcDbEntity
8
5-0
6
CONTINUOUS
62
7
100
AcDbLine
10
548.410000000000
20
455.390000000000
30
0.0
11
548.950000000000
21
455.340000000000
31
0.0
0
LINE
5
860
100
AcDbEntity
8
5-0
6
CONTINUOUS
62
7
100
AcDbLine
10
548.950000000000
20
455.340000000000
30
0.0
11
549.530000000000
21
455.280000000000
31
0.0
0
LINE
5
861
100
AcDbEntity
8
5-0
6
CONTINUOUS
62
7
100
AcDbLine
10
549.530000000000
20
455.280000000000
30
0.0
11
550.160000000000
21
455.230000000000
31
0.0
0
LINE
5
862
100
AcDbEntity
8
5-0
6
CONTINUOUS
62
7
100
AcDbLine
10
550.160000000000
20
455.230000000000
30
0.0
11
550.850000000000
21
455.180000000000
31
0.0
0
LINE
5
863
100
AcDbEntity
8
5-0
6
CONTINUOUS
62
7
100
AcDbLine
10
550.850000000000
20
455.180000000000
30
0.0
11
551.590000000000
21
455.130000000000
31
0.0
0
LINE
5
864
100
AcDbEntity
8
5-0
6
CONTINUOUS
62
7
100
AcDbLine
10
551.590000000000
20
455.130000000000
30
0.0
11
552.390000000000
21
455.080000000000
31
0.0
0
LINE
5
865
100
AcDbEntity
8
5-0
6
CONTINUOUS
62
7
100
AcDbLine
10
552.390000000000
20
455.080000000000
30
0.0
11
553.260000000000
21
455.030000000000
31
0.0
0
LINE
5
866
100
AcDbEntity
8
5-0
6
CONTINUOUS
62
7
100
AcDbLine
10
553.260000000000
20
455.030000000000
30
0.0
11
554.220000000000
21
454.980000000000
31
0.0
0
LINE
5
867
100
AcDbEntity
8
5-0
6
CONTINUOUS
62
7
100
AcDbLine
10
554.220000000000
20
454.980000000000
30
0.0
11
555.250000000000
21
454.930000000000
31
0.0
0
LINE
5
868
100
AcDbEntity
8
5-0
6
CONTINUOUS
62
7
100
AcDbLine
10
555.250000000000
20
454.930000000000
30
0.0
11
556.380000000000
21
454.880000000000
31
0.0
0
LINE
5
869
100
AcDbEntity
8
5-0
6
CONTINUOUS
62
7
100
AcDbLine
10
556.380000000000
20
454.880000000000
30
0.0
11
557.610000000000
21
454.830000000000
31
0.0
0
LINE
5
86a
100
AcDbEntity
8
5-0
6
CONTINUOUS
62
7
100
AcDbLine
10
557.610000000000
20
454.830000000000
30
0.0
11
558.930000000000
21
454.780000000000
31
0.0
0
LINE
5
86b
100
AcDbEntity
8
5-0
6
CONTINUOUS
62
7
100
AcDbLine
10
558.930000000000
20
454.780000000000
30
0.0
11
560.370000000000
21
454.720000000000
31
0.0
0
LINE
5
86c
100
AcDbEntity
8
5-0
6
CONTINUOUS
62
7
100
AcDbLine
10
560.370000000000
20
454.720000000000
30
0.0
11
561.930000000000
21
454.670000000000
31
0.0
0
LINE
5
86d
100
AcDbEntity
8
5-0
6
CONTINUOUS
62
7
100
AcDbLine
10
561.930000000000
20
454.670000000000
30
0.0
11
563.610000000000
21
454.610000000000
31
0.0
0
LINE
5
86e
100
AcDbEntity
8
5-0
6
CONTINUOUS
62
7
100
AcDbLine
10
563.610000000000
20
454.610000000000
30
0.0
11
565.420000000000
21
454.560000000000
31
0.0
0
LINE
5
86f
100
AcDbEntity
8
5-0
6
CONTINUOUS
62
7
100
AcDbLine
10
565.420000000000
20
454.560000000000
30
0.0
11
567.370000000000
21
454.500000000000
31
0.0
0
LINE
5
870
100
AcDbEntity
8
5-0
6
CONTINUOUS
62
7
100
AcDbLine
10
567.370000000000
20
454.500000000000
30
0.0
11
569.470000000000
21
454.440000000000
31
0.0
0
LINE
5
871
100
AcDbEntity
8
5-0
6
CONTINUOUS
62
7
100
AcDbLine
10
569.470000000000
20
454.440000000000
30
0.0
11
571.740000000000
21
454.370000000000
31
0.0
0
LINE
5
872
100
AcDbEntity
8
5-0
6
CONTINUOUS
62
7
100
AcDbLine
10
571.740000000000
20
454.370000000000
30
0.0
11
574.200000000000
21
454.300000000000
31
0.0
0
LINE
5
873
100
AcDbEntity
8
5-0
6
CONTINUOUS
62
7
100
AcDbLine
10
574.200000000000
20
454.300000000000
30
0.0
11
576.880000000000
21
454.230000000000
31
0.0
0
LINE
5
874
100
AcDbEntity
8
5-0
6
CONTINUOUS
62
7
100
AcDbLine
10
576.880000000000
20
454.230000000000
30
0.0
11
579.800000000000
21
454.140000000000
31
0.0
0
LINE
5
875
100
AcDbEntity
8
5-0
6
CONTINUOUS
62
7
100
AcDbLine
10
579.800000000000
20
454.140000000000
30
0.0
11
583.030000000000
21
454.050000000000
31
0.0
0
LINE
5
876
100
AcDbEntity
8
5-0
6
CONTINUOUS
62
7
100
AcDbLine
10
539.870000000000
20
471.670000000000
30
0.0
11
540.380000000000
21
471.410000000000
31
0.0
0
LINE
5
877
100
AcDbEntity
8
5-0
6
CONTINUOUS
62
7
100
AcDbLine
10
540.380000000000
20
471.410000000000
30
0.0
11
540.820000000000
21
471.190000000000
31
0.0
0
LINE
5
878
100
AcDbEntity
8
5-0
6
CONTINUOUS
62
7
100
AcDbLine
10
540.820000000000
20
471.190000000000
30
0.0
11
541.210000000000
21
471.000000000000
31
0.0
0
LINE
5
879
100
AcDbEntity
8
5-0
6
CONTINUOUS
62
7
100
AcDbLine
10
541.210000000000
20
471.000000000000
30
0.0
11
541.580000000000
21
470.820000000000
31
0.0
0
LINE
5
87a
100
AcDbEntity
8
5-0
6
CONTINUOUS
62
7
100
AcDbLine
10
541.580000000000
20
470.820000000000
30
0.0
11
541.910000000000
21
470.660000000000
31
0.0
0
LINE
5
87b
100
AcDbEntity
8
5-0
6
CONTINUOUS
62
7
100
AcDbLine
10
541.910000000000
20
470.660000000000
30
0.0
11
542.210000000000
21
470.520000000000
31
0.0
0
LINE
5
87c
100
AcDbEntity
8
5-0
6
CONTINUOUS
62
7
100
AcDbLine
10
542.210000000000
20
470.520000000000
30
0.0
11
542.500000000000
21
470.380000000000
31
0.0
0
LINE
5
87d
100
AcDbEntity
8
5-0
6
CONTINUOUS
62
7
100
AcDbLine
10
542.500000000000
20
470.380000000000
30
0.0
11
542.760000000000
21
470.260000000000
31
0.0
0
LINE
5
87e
100
AcDbEntity
8
5-0
6
CONTINUOUS
62
7
100
AcDbLine
10
542.760000000000
20
470.260000000000
30
0.0
11
543.000000000000
21
470.150000000000
31
0.0
0
LINE
5
87f
100
AcDbEntity
8
5-0
6
CONTINUOUS
62
7
100
AcDbLine
10
543.000000000000
20
470.150000000000
30
0.0
11
543.220000000000
21
470.050000000000
31
0.0
0
LINE
5
880
100
AcDbEntity
8
5-0
6
CONTINUOUS
62
7
100
AcDbLine
10
543.220000000000
20
470.050000000000
30
0.0
11
543.430000000000
21
469.960000000000
31
0.0
0
LINE
5
881
100
AcDbEntity
8
5-0
6
CONTINUOUS
62
7
100
AcDbLine
10
543.430000000000
20
469.960000000000
30
0.0
11
543.620000000000
21
469.880000000000
31
0.0
0
LINE
5
882
100
AcDbEntity
8
5-0
6
CONTINUOUS
62
7
100
AcDbLine
10
543.620000000000
20
469.880000000000
30
0.0
11
543.800000000000
21
469.800000000000
31
0.0
0
LINE
5
883
100
AcDbEntity
8
5-0
6
CONTINUOUS
62
7
100
AcDbLine
10
543.800000000000
20
469.800000000000
30
0.0
11
543.980000000000
21
469.730000000000
31
0.0
0
LINE
5
884
100
AcDbEntity
8
5-0
6
CONTINUOUS
62
7
100
AcDbLine
10
543.980000000000
20
469.730000000000
30
0.0
11
544.140000000000
21
469.660000000000
31
0.0
0
LINE
5
885
100
AcDbEntity
8
5-0
6
CONTINUOUS
62
7
100
AcDbLine
10
544.140000000000
20
469.660000000000
30
0.0
11
544.310000000000
21
469.600000000000
31
0.0
0
LINE
5
886
100
AcDbEntity
8
5-0
6
CONTINUOUS
62
7
100
AcDbLine
10
544.310000000000
20
469.600000000000
30
0.0
11
544.480000000000
21
469.530000000000
31
0.0
0
LINE
5
887
100
AcDbEntity
8
5-0
6
CONTINUOUS
62
7
100
AcDbLine
10
544.480000000000
20
469.530000000000
30
0.0
11
544.650000000000
21
469.470000000000
31
0.0
0
LINE
5
888
100
AcDbEntity
8
5-0
6
CONTINUOUS
62
7
100
AcDbLine
10
544.650000000000
20
469.470000000000
30
0.0
11
544.810000000000
21
469.410000000000
31
0.0
0
LINE
5
889
100
AcDbEntity
8
5-0
6
CONTINUOUS
62
7
100
AcDbLine
10
544.810000000000
20
469.410000000000
30
0.0
11
544.990000000000
21
469.350000000000
31
0.0
0
LINE
5
88a
100
AcDbEntity
8
5-0
6
CONTINUOUS
62
7
100
AcDbLine
10
544.990000000000
20
469.350000000000
30
0.0
11
545.170000000000
21
469.290000000000
31
0.0
0
LINE
5
88b
100
AcDbEntity
8
5-0
6
CONTINUOUS
62
7
100
AcDbLine
10
545.170000000000
20
469.290000000000
30
0.0
11
545.350000000000
21
469.230000000000
31
0.0
0
LINE
5
88c
100
AcDbEntity
8
5-0
6
CONTINUOUS
62
7
100
AcDbLine
10
545.350000000000
20
469.230000000000
30
0.0
11
545.540000000000
21
469.180000000000
31
0.0
0
LINE
5
88d
100
AcDbEntity
8
5-0
6
CONTINUOUS
62
7
100
AcDbLine
10
545.540000000000
20
469.180000000000
30
0.0
11
545.730000000000
21
469.120000000000
31
0.0
0
LINE
5
88e
100
AcDbEntity
8
5-0
6
CONTINUOUS
62
7
100
AcDbLine
10
545.730000000000
20
469.120000000000
30
0.0
11
545.930000000000
21
469.060000000000
31
0.0
0
LINE
5
88f
100
AcDbEntity
8
5-0
6
CONTINUOUS
62
7
100
AcDbLine
10
545.930000000000
20
469.060000000000
30
0.0
11
546.130000000000
21
469.000000000000
31
0.0
0
LINE
5
890
100
AcDbEntity
8
5-0
6
CONTINUOUS
62
7
100
AcDbLine
10
546.130000000000
20
469.000000000000
30
0.0
11
546.330000000000
21
468.950000000000
31
0.0
0
LINE
5
891
100
AcDbEntity
8
5-0
6
CONTINUOUS
62
7
100
AcDbLine
10
546.330000000000
20
468.950000000000
30
0.0
11
546.540000000000
21
468.890000000000
31
0.0
0
LINE
5
892
100
AcDbEntity
8
5-0
6
CONTINUOUS
62
7
100
AcDbLine
10
546.540000000000
20
468.890000000000
30
0.0
11
546.740000000000
21
468.840000000000
31
0.0
0
LINE
5
893
100
AcDbEntity
8
5-0
6
CONTINUOUS
62
7
100
AcDbLine
10
546.740000000000
20
468.840000000000
30
0.0
11
546.960000000000
21
468.790000000000
31
0.0
0
LINE
5
894
100
AcDbEntity
8
5-0
6
CONTINUOUS
62
7
100
AcDbLine
10
546.960000000000
20
468.790000000000
30
0.0
11
547.170000000000
21
468.740000000000
31
0.0
0
LINE
5
895
100
AcDbEntity
8
5-0
6
CONTINUOUS
62
7
100
AcDbLine
10
547.170000000000
20
468.740000000000
30
0.0
11
547.380000000000
21
468.690000000000
31
0.0
0
LINE
5
896
100
AcDbEntity
8
5-0
6
CONTINUOUS
62
7
100
AcDbLine
10
547.380000000000
20
468.690000000000
30
0.0
11
547.600000000000
21
468.650000000000
31
0.0
0
LINE
5
897
100
AcDbEntity
8
5-0
6
CONTINUOUS
62
7
100
AcDbLine
10
547.600000000000
20
468.650000000000
30
0.0
11
547.820000000000
21
468.610000000000
31
0.0
0
LINE
5
898
100
AcDbEntity
8
5-0
6
CONTINUOUS
62
7
100
AcDbLine
10
547.820000000000
20
468.610000000000
30
0.0
11
548.040000000000
21
468.560000000000
31
0.0
0
LINE
5
899
100
AcDbEntity
8
5-0
6
CONTINUOUS
62
7
100
AcDbLine
10
548.040000000000
20
468.560000000000
30
0.0
11
548.280000000000
21
468.520000000000
31
0.0
0
LINE
5
89a
100
AcDbEntity
8
5-0
6
CONTINUOUS
62
7
100
AcDbLine
10
548.280000000000
20
468.520000000000
30
0.0
11
548.540000000000
21
468.480000000000
31
0.0
0
LINE
5
89b
100
AcDbEntity
8
5-0
6
CONTINUOUS
62
7
100
AcDbLine
10
548.540000000000
20
468.480000000000
30
0.0
11
548.810000000000
21
468.440000000000
31
0.0
0
LINE
5
89c
100
AcDbEntity
8
5-0
6
CONTINUOUS
62
7
100
AcDbLine
10
548.810000000000
20
468.440000000000
30
0.0
11
549.110000000000
21
468.400000000000
31
0.0
0
LINE
5
89d
100
AcDbEntity
8
5-0
6
CONTINUOUS
62
7
100
AcDbLine
10
549.110000000000
20
468.400000000000
30
0.0
11
549.440000000000
21
468.360000000000
31
0.0
0
LINE
5
89e
100
AcDbEntity
8
5-0
6
CONTINUOUS
62
7
100
AcDbLine
10
549.440000000000
20
468.360000000000
30
0.0
11
549.810000000000
21
468.320000000000
31
0.0
0
LINE
5
89f
100
AcDbEntity
8
5-0
6
CONTINUOUS
62
7
100
AcDbLine
10
549.810000000000
20
468.320000000000
30
0.0
11
550.220000000000
21
468.280000000000
31
0.0
0
LINE
5
8a0
100
AcDbEntity
8
5-0
6
CONTINUOUS
62
7
100
AcDbLine
10
550.220000000000
20
468.280000000000
30
0.0
11
550.680000000000
21
468.230000000000
31
0.0
0
LINE
5
8a1
100
AcDbEntity
8
5-0
6
CONTINUOUS
62
7
100
AcDbLine
10
550.680000000000
20
468.230000000000
30
0.0
11
551.200000000000
21
468.190000000000
31
0.0
0
LINE
5
8a2
100
AcDbEntity
8
5-0
6
CONTINUOUS
62
7
100
AcDbLine
10
551.200000000000
20
468.190000000000
30
0.0
11
551.780000000000
21
468.140000000000
31
0.0
0
LINE
5
8a3
100
AcDbEntity
8
5-0
6
CONTINUOUS
62
7
100
AcDbLine
10
551.780000000000
20
468.140000000000
30
0.0
11
552.440000000000
21
468.100000000000
31
0.0
0
LINE
5
8a4
100
AcDbEntity
8
5-0
6
CONTINUOUS
62
7
100
AcDbLine
10
552.440000000000
20
468.100000000000
30
0.0
11
553.160000000000
21
468.050000000000
31
0.0
0
LINE
5
8a5
100
AcDbEntity
8
5-0
6
CONTINUOUS
62
7
100
AcDbLine
10
553.160000000000
20
468.050000000000
30
0.0
11
553.970000000000
21
468.010000000000
31
0.0
0
LINE
5
8a6
100
AcDbEntity
8
5-0
6
CONTINUOUS
62
7
100
AcDbLine
10
553.970000000000
20
468.010000000000
30
0.0
11
554.870000000000
21
467.960000000000
31
0.0
0
LINE
5
8a7
100
AcDbEntity
8
5-0
6
CONTINUOUS
62
7
100
AcDbLine
10
554.870000000000
20
467.960000000000
30
0.0
11
555.850000000000
21
467.910000000000
31
0.0
0
LINE
5
8a8
100
AcDbEntity
8
5-0
6
CONTINUOUS
62
7
100
AcDbLine
10
555.850000000000
20
467.910000000000
30
0.0
11
556.940000000000
21
467.870000000000
31
0.0
0
LINE
5
8a9
100
AcDbEntity
8
5-0
6
CONTINUOUS
62
7
100
AcDbLine
10
556.940000000000
20
467.870000000000
30
0.0
11
558.130000000000
21
467.820000000000
31
0.0
0
LINE
5
8aa
100
AcDbEntity
8
5-0
6
CONTINUOUS
62
7
100
AcDbLine
10
558.130000000000
20
467.820000000000
30
0.0
11
559.430000000000
21
467.770000000000
31
0.0
0
LINE
5
8ab
100
AcDbEntity
8
5-0
6
CONTINUOUS
62
7
100
AcDbLine
10
559.430000000000
20
467.770000000000
30
0.0
11
560.830000000000
21
467.710000000000
31
0.0
0
LINE
5
8ac
100
AcDbEntity
8
5-0
6
CONTINUOUS
62
7
100
AcDbLine
10
560.830000000000
20
467.710000000000
30
0.0
11
562.360000000000
21
467.660000000000
31
0.0
0
LINE
5
8ad
100
AcDbEntity
8
5-0
6
CONTINUOUS
62
7
100
AcDbLine
10
562.360000000000
20
467.660000000000
30
0.0
11
564.040000000000
21
467.610000000000
31
0.0
0
LINE
5
8ae
100
AcDbEntity
8
5-0
6
CONTINUOUS
62
7
100
AcDbLine
10
564.040000000000
20
467.610000000000
30
0.0
11
565.810000000000
21
467.550000000000
31
0.0
0
LINE
5
8af
100
AcDbEntity
8
5-0
6
CONTINUOUS
62
7
100
AcDbLine
10
565.810000000000
20
467.550000000000
30
0.0
11
567.760000000000
21
467.490000000000
31
0.0
0
LINE
5
8b0
100
AcDbEntity
8
5-0
6
CONTINUOUS
62
7
100
AcDbLine
10
567.760000000000
20
467.490000000000
30
0.0
11
569.840000000000
21
467.430000000000
31
0.0
0
LINE
5
8b1
100
AcDbEntity
8
5-0
6
CONTINUOUS
62
7
100
AcDbLine
10
569.840000000000
20
467.430000000000
30
0.0
11
572.140000000000
21
467.360000000000
31
0.0
0
LINE
5
8b2
100
AcDbEntity
8
5-0
6
CONTINUOUS
62
7
100
AcDbLine
10
572.140000000000
20
467.360000000000
30
0.0
11
574.510000000000
21
467.300000000000
31
0.0
0
LINE
5
8b3
100
AcDbEntity
8
5-0
6
CONTINUOUS
62
7
100
AcDbLine
10
574.510000000000
20
467.300000000000
30
0.0
11
577.620000000000
21
467.210000000000
31
0.0
0
LINE
5
8b4
100
AcDbEntity
8
5-0
6
CONTINUOUS
62
7
100
AcDbLine
10
577.620000000000
20
467.210000000000
30
0.0
11
580.270000000000
21
467.140000000000
31
0.0
0
LINE
5
8b5
100
AcDbEntity
8
5-0
6
CONTINUOUS
62
7
100
AcDbLine
10
580.270000000000
20
467.140000000000
30
0.0
11
583.400000000000
21
467.050000000000
31
0.0
0
LINE
5
8b6
100
AcDbEntity
8
5-0
6
CONTINUOUS
62
7
100
AcDbLine
10
587.030000000000
20
454.050000000000
30
0.0
11
588.490000000000
21
454.190000000000
31
0.0
0
LINE
5
8b7
100
AcDbEntity
8
5-0
6
CONTINUOUS
62
7
100
AcDbLine
10
588.490000000000
20
454.190000000000
30
0.0
11
590.990000000000
21
454.480000000000
31
0.0
0
LINE
5
8b8
100
AcDbEntity
8
5-0
6
CONTINUOUS
62
7
100
AcDbLine
10
590.990000000000
20
454.480000000000
30
0.0
11
593.420000000000
21
454.900000000000
31
0.0
0
LINE
5
8b9
100
AcDbEntity
8
5-0
6
CONTINUOUS
62
7
100
AcDbLine
10
593.420000000000
20
454.900000000000
30
0.0
11
595.740000000000
21
455.540000000000
31
0.0
0
LINE
5
8ba
100
AcDbEntity
8
5-0
6
CONTINUOUS
62
7
100
AcDbLine
10
595.740000000000
20
455.540000000000
30
0.0
11
597.030000000000
21
456.050000000000
31
0.0
0
LINE
5
8bb
100
AcDbEntity
8
5-0
6
CONTINUOUS
62
7
100
AcDbLine
10
597.030000000000
20
456.050000000000
30
0.0
11
598.640000000000
21
456.900000000000
31
0.0
0
LINE
5
8bc
100
AcDbEntity
8
5-0
6
CONTINUOUS
62
7
100
AcDbLine
10
598.640000000000
20
456.900000000000
30
0.0
11
601.220000000000
21
458.780000000000
31
0.0
0
LINE
5
8bd
100
AcDbEntity
8
5-0
6
CONTINUOUS
62
7
100
AcDbLine
10
601.220000000000
20
458.780000000000
30
0.0
11
603.590000000000
21
461.040000000000
31
0.0
0
LINE
5
8be
100
AcDbEntity
8
5-0
6
CONTINUOUS
62
7
100
AcDbLine
10
603.590000000000
20
461.040000000000
30
0.0
11
605.800000000000
21
463.550000000000
31
0.0
0
LINE
5
8bf
100
AcDbEntity
8
5-0
6
CONTINUOUS
62
7
100
AcDbLine
10
605.800000000000
20
463.550000000000
30
0.0
11
607.030000000000
21
465.050000000000
31
0.0
0
LINE
5
8c0
100
AcDbEntity
8
5-0
6
CONTINUOUS
62
7
100
AcDbLine
10
607.030000000000
20
465.050000000000
30
0.0
11
608.360000000000
21
466.720000000000
31
0.0
0
LINE
5
8c1
100
AcDbEntity
8
5-0
6
CONTINUOUS
62
7
100
AcDbLine
10
608.360000000000
20
466.720000000000
30
0.0
11
610.630000000000
21
469.540000000000
31
0.0
0
LINE
5
8c2
100
AcDbEntity
8
5-0
6
CONTINUOUS
62
7
100
AcDbLine
10
610.630000000000
20
469.540000000000
30
0.0
11
612.960000000000
21
472.230000000000
31
0.0
0
LINE
5
8c3
100
AcDbEntity
8
5-0
6
CONTINUOUS
62
7
100
AcDbLine
10
612.960000000000
20
472.230000000000
30
0.0
11
615.460000000000
21
474.680000000000
31
0.0
0
LINE
5
8c4
100
AcDbEntity
8
5-0
6
CONTINUOUS
62
7
100
AcDbLine
10
615.460000000000
20
474.680000000000
30
0.0
11
617.030000000000
21
475.970000000000
31
0.0
0
LINE
5
8c5
100
AcDbEntity
8
5-0
6
CONTINUOUS
62
7
100
AcDbLine
10
617.030000000000
20
475.970000000000
30
0.0
11
618.290000000000
21
476.860000000000
31
0.0
0
LINE
5
8c6
100
AcDbEntity
8
5-0
6
CONTINUOUS
62
7
100
AcDbLine
10
618.290000000000
20
476.860000000000
30
0.0
11
620.580000000000
21
478.240000000000
31
0.0
0
LINE
5
8c7
100
AcDbEntity
8
5-0
6
CONTINUOUS
62
7
100
AcDbLine
10
620.580000000000
20
478.240000000000
30
0.0
11
623.010000000000
21
479.450000000000
31
0.0
0
LINE
5
8c8
100
AcDbEntity
8
5-0
6
CONTINUOUS
62
7
100
AcDbLine
10
623.010000000000
20
479.450000000000
30
0.0
11
625.530000000000
21
480.500000000000
31
0.0
0
LINE
5
8c9
100
AcDbEntity
8
5-0
6
CONTINUOUS
62
7
100
AcDbLine
10
625.530000000000
20
480.500000000000
30
0.0
11
627.030000000000
21
481.050000000000
31
0.0
0
LINE
5
8ca
100
AcDbEntity
8
5-0
6
CONTINUOUS
62
7
100
AcDbLine
10
627.030000000000
20
481.050000000000
30
0.0
11
628.400000000000
21
481.520000000000
31
0.0
0
LINE
5
8cb
100
AcDbEntity
8
5-0
6
CONTINUOUS
62
7
100
AcDbLine
10
628.400000000000
20
481.520000000000
30
0.0
11
630.800000000000
21
482.220000000000
31
0.0
0
LINE
5
8cc
100
AcDbEntity
8
5-0
6
CONTINUOUS
62
7
100
AcDbLine
10
630.800000000000
20
482.220000000000
30
0.0
11
633.210000000000
21
482.740000000000
31
0.0
0
LINE
5
8cd
100
AcDbEntity
8
5-0
6
CONTINUOUS
62
7
100
AcDbLine
10
633.210000000000
20
482.740000000000
30
0.0
11
635.630000000000
21
483.020000000000
31
0.0
0
LINE
5
8ce
100
AcDbEntity
8
5-0
6
CONTINUOUS
62
7
100
AcDbLine
10
635.630000000000
20
483.020000000000
30
0.0
11
637.030000000000
21
483.050000000000
31
0.0
0
LINE
5
8cf
100
AcDbEntity
8
5-0
6
CONTINUOUS
62
7
100
AcDbLine
10
637.030000000000
20
483.050000000000
30
0.0
11
638.430000000000
21
482.990000000000
31
0.0
0
LINE
5
8d0
100
AcDbEntity
8
5-0
6
CONTINUOUS
62
7
100
AcDbLine
10
638.430000000000
20
482.990000000000
30
0.0
11
640.840000000000
21
482.660000000000
31
0.0
0
LINE
5
8d1
100
AcDbEntity
8
5-0
6
CONTINUOUS
62
7
100
AcDbLine
10
640.840000000000
20
482.660000000000
30
0.0
11
643.240000000000
21
482.120000000000
31
0.0
0
LINE
5
8d2
100
AcDbEntity
8
5-0
6
CONTINUOUS
62
7
100
AcDbLine
10
643.240000000000
20
482.120000000000
30
0.0
11
645.640000000000
21
481.470000000000
31
0.0
0
LINE
5
8d3
100
AcDbEntity
8
5-0
6
CONTINUOUS
62
7
100
AcDbLine
10
645.640000000000
20
481.470000000000
30
0.0
11
647.030000000000
21
481.050000000000
31
0.0
0
LINE
5
8d4
100
AcDbEntity
8
5-0
6
CONTINUOUS
62
7
100
AcDbLine
10
647.030000000000
20
481.050000000000
30
0.0
11
648.500000000000
21
480.610000000000
31
0.0
0
LINE
5
8d5
100
AcDbEntity
8
5-0
6
CONTINUOUS
62
7
100
AcDbLine
10
648.500000000000
20
480.610000000000
30
0.0
11
651.000000000000
21
479.800000000000
31
0.0
0
LINE
5
8d6
100
AcDbEntity
8
5-0
6
CONTINUOUS
62
7
100
AcDbLine
10
651.000000000000
20
479.800000000000
30
0.0
11
653.440000000000
21
478.890000000000
31
0.0
0
LINE
5
8d7
100
AcDbEntity
8
5-0
6
CONTINUOUS
62
7
100
AcDbLine
10
653.440000000000
20
478.890000000000
30
0.0
11
655.760000000000
21
477.790000000000
31
0.0
0
LINE
5
8d8
100
AcDbEntity
8
5-0
6
CONTINUOUS
62
7
100
AcDbLine
10
655.760000000000
20
477.790000000000
30
0.0
11
657.030000000000
21
477.050000000000
31
0.0
0
LINE
5
8d9
100
AcDbEntity
8
5-0
6
CONTINUOUS
62
7
100
AcDbLine
10
657.030000000000
20
477.050000000000
30
0.0
11
658.610000000000
21
475.950000000000
31
0.0
0
LINE
5
8da
100
AcDbEntity
8
5-0
6
CONTINUOUS
62
7
100
AcDbLine
10
658.610000000000
20
475.950000000000
30
0.0
11
661.130000000000
21
473.740000000000
31
0.0
0
LINE
5
8db
100
AcDbEntity
8
5-0
6
CONTINUOUS
62
7
100
AcDbLine
10
661.130000000000
20
473.740000000000
30
0.0
11
663.480000000000
21
471.250000000000
31
0.0
0
LINE
5
8dc
100
AcDbEntity
8
5-0
6
CONTINUOUS
62
7
100
AcDbLine
10
663.480000000000
20
471.250000000000
30
0.0
11
665.730000000000
21
468.610000000000
31
0.0
0
LINE
5
8dd
100
AcDbEntity
8
5-0
6
CONTINUOUS
62
7
100
AcDbLine
10
665.730000000000
20
468.610000000000
30
0.0
11
667.030000000000
21
467.050000000000
31
0.0
0
LINE
5
8de
100
AcDbEntity
8
5-0
6
CONTINUOUS
62
7
100
AcDbLine
10
667.030000000000
20
467.050000000000
30
0.0
11
668.280000000000
21
465.580000000000
31
0.0
0
LINE
5
8df
100
AcDbEntity
8
5-0
6
CONTINUOUS
62
7
100
AcDbLine
10
668.280000000000
20
465.580000000000
30
0.0
11
670.510000000000
21
463.140000000000
31
0.0
0
LINE
5
8e0
100
AcDbEntity
8
5-0
6
CONTINUOUS
62
7
100
AcDbLine
10
670.510000000000
20
463.140000000000
30
0.0
11
672.880000000000
21
460.900000000000
31
0.0
0
LINE
5
8e1
100
AcDbEntity
8
5-0
6
CONTINUOUS
62
7
100
AcDbLine
10
672.880000000000
20
460.900000000000
30
0.0
11
675.440000000000
21
458.980000000000
31
0.0
0
LINE
5
8e2
100
AcDbEntity
8
5-0
6
CONTINUOUS
62
7
100
AcDbLine
10
675.440000000000
20
458.980000000000
30
0.0
11
677.030000000000
21
458.050000000000
31
0.0
0
LINE
5
8e3
100
AcDbEntity
8
5-0
6
CONTINUOUS
62
7
100
AcDbLine
10
677.030000000000
20
458.050000000000
30
0.0
11
678.330000000000
21
457.440000000000
31
0.0
0
LINE
5
8e4
100
AcDbEntity
8
5-0
6
CONTINUOUS
62
7
100
AcDbLine
10
678.330000000000
20
457.440000000000
30
0.0
11
680.670000000000
21
456.580000000000
31
0.0
0
LINE
5
8e5
100
AcDbEntity
8
5-0
6
CONTINUOUS
62
7
100
AcDbLine
10
680.670000000000
20
456.580000000000
30
0.0
11
683.110000000000
21
455.910000000000
31
0.0
0
LINE
5
8e6
100
AcDbEntity
8
5-0
6
CONTINUOUS
62
7
100
AcDbLine
10
683.110000000000
20
455.910000000000
30
0.0
11
685.590000000000
21
455.350000000000
31
0.0
0
LINE
5
8e7
100
AcDbEntity
8
5-0
6
CONTINUOUS
62
7
100
AcDbLine
10
685.590000000000
20
455.350000000000
30
0.0
11
687.030000000000
21
455.050000000000
31
0.0
0
LINE
5
8e8
100
AcDbEntity
8
5-0
6
CONTINUOUS
62
7
100
AcDbLine
10
687.030000000000
20
455.050000000000
30
0.0
11
687.700000000000
21
454.920000000000
31
0.0
0
LINE
5
8e9
100
AcDbEntity
8
5-0
6
CONTINUOUS
62
7
100
AcDbLine
10
687.700000000000
20
454.920000000000
30
0.0
11
688.860000000000
21
454.680000000000
31
0.0
0
LINE
5
8ea
100
AcDbEntity
8
5-0
6
CONTINUOUS
62
7
100
AcDbLine
10
688.860000000000
20
454.680000000000
30
0.0
11
690.010000000000
21
454.450000000000
31
0.0
0
LINE
5
8eb
100
AcDbEntity
8
5-0
6
CONTINUOUS
62
7
100
AcDbLine
10
690.010000000000
20
454.450000000000
30
0.0
11
691.160000000000
21
454.210000000000
31
0.0
0
LINE
5
8ec
100
AcDbEntity
8
5-0
6
CONTINUOUS
62
7
100
AcDbLine
10
691.160000000000
20
454.210000000000
30
0.0
11
691.830000000000
21
454.080000000000
31
0.0
0
LINE
5
8ed
100
AcDbEntity
8
5-0
6
CONTINUOUS
62
7
100
AcDbLine
10
691.830000000000
20
454.080000000000
30
0.0
11
691.840000000000
21
454.080000000000
31
0.0
0
LINE
5
8ee
100
AcDbEntity
8
5-0
6
CONTINUOUS
62
7
100
AcDbLine
10
691.840000000000
20
454.080000000000
30
0.0
11
691.870000000000
21
454.070000000000
31
0.0
0
LINE
5
8ef
100
AcDbEntity
8
5-0
6
CONTINUOUS
62
7
100
AcDbLine
10
691.870000000000
20
454.070000000000
30
0.0
11
691.900000000000
21
454.070000000000
31
0.0
0
LINE
5
8f0
100
AcDbEntity
8
5-0
6
CONTINUOUS
62
7
100
AcDbLine
10
691.900000000000
20
454.070000000000
30
0.0
11
691.930000000000
21
454.060000000000
31
0.0
0
LINE
5
8f1
100
AcDbEntity
8
5-0
6
CONTINUOUS
62
7
100
AcDbLine
10
691.930000000000
20
454.060000000000
30
0.0
11
691.940000000000
21
454.060000000000
31
0.0
0
LINE
5
8f2
100
AcDbEntity
8
5-0
6
CONTINUOUS
62
7
100
AcDbLine
10
691.940000000000
20
454.060000000000
30
0.0
11
691.960000000000
21
454.060000000000
31
0.0
0
LINE
5
8f3
100
AcDbEntity
8
5-0
6
CONTINUOUS
62
7
100
AcDbLine
10
691.960000000000
20
454.060000000000
30
0.0
11
691.980000000000
21
454.060000000000
31
0.0
0
LINE
5
8f4
100
AcDbEntity
8
5-0
6
CONTINUOUS
62
7
100
AcDbLine
10
691.980000000000
20
454.060000000000
30
0.0
11
692.010000000000
21
454.060000000000
31
0.0
0
LINE
5
8f5
100
AcDbEntity
8
5-0
6
CONTINUOUS
62
7
100
AcDbLine
10
692.010000000000
20
454.060000000000
30
0.0
11
692.030000000000
21
454.050000000000
31
0.0
0
LINE
5
8f6
100
AcDbEntity
8
5-0
6
CONTINUOUS
62
7
100
AcDbLine
10
692.030000000000
20
454.050000000000
30
0.0
11
692.050000000000
21
454.050000000000
31
0.0
0
LINE
5
8f7
100
AcDbEntity
8
5-0
6
CONTINUOUS
62
7
100
AcDbLine
10
748.420000000000
20
484.410000000000
30
0.0
11
748.220000000000
21
484.210000000000
31
0.0
0
LINE
5
8f8
100
AcDbEntity
8
5-0
6
CONTINUOUS
62
7
100
AcDbLine
10
748.220000000000
20
484.210000000000
30
0.0
11
748.430000000000
21
484.410000000000
31
0.0
0
LINE
5
8f9
100
AcDbEntity
8
5-0
6
CONTINUOUS
62
7
100
AcDbLine
10
583.400000000000
20
467.050000000000
30
0.0
11
583.820000000000
21
467.070000000000
31
0.0
0
LINE
5
8fa
100
AcDbEntity
8
5-0
6
CONTINUOUS
62
7
100
AcDbLine
10
583.820000000000
20
467.070000000000
30
0.0
11
584.550000000000
21
467.120000000000
31
0.0
0
LINE
5
8fb
100
AcDbEntity
8
5-0
6
CONTINUOUS
62
7
100
AcDbLine
10
584.550000000000
20
467.120000000000
30
0.0
11
585.280000000000
21
467.170000000000
31
0.0
0
LINE
5
8fc
100
AcDbEntity
8
5-0
6
CONTINUOUS
62
7
100
AcDbLine
10
585.280000000000
20
467.170000000000
30
0.0
11
586.010000000000
21
467.250000000000
31
0.0
0
LINE
5
8fd
100
AcDbEntity
8
5-0
6
CONTINUOUS
62
7
100
AcDbLine
10
586.010000000000
20
467.250000000000
30
0.0
11
586.440000000000
21
467.300000000000
31
0.0
0
LINE
5
8fe
100
AcDbEntity
8
5-0
6
CONTINUOUS
62
7
100
AcDbLine
10
586.440000000000
20
467.300000000000
30
0.0
11
586.820000000000
21
467.360000000000
31
0.0
0
LINE
5
8ff
100
AcDbEntity
8
5-0
6
CONTINUOUS
62
7
100
AcDbLine
10
586.820000000000
20
467.360000000000
30
0.0
11
587.490000000000
21
467.480000000000
31
0.0
0
LINE
5
900
100
AcDbEntity
8
5-0
6
CONTINUOUS
62
7
100
AcDbLine
10
587.490000000000
20
467.480000000000
30
0.0
11
588.150000000000
21
467.630000000000
31
0.0
0
LINE
5
901
100
AcDbEntity
8
5-0
6
CONTINUOUS
62
7
100
AcDbLine
10
588.150000000000
20
467.630000000000
30
0.0
11
588.790000000000
21
467.810000000000
31
0.0
0
LINE
5
902
100
AcDbEntity
8
5-0
6
CONTINUOUS
62
7
100
AcDbLine
10
588.790000000000
20
467.810000000000
30
0.0
11
589.170000000000
21
467.940000000000
31
0.0
0
LINE
5
903
100
AcDbEntity
8
5-0
6
CONTINUOUS
62
7
100
AcDbLine
10
589.170000000000
20
467.940000000000
30
0.0
11
589.460000000000
21
468.040000000000
31
0.0
0
LINE
5
904
100
AcDbEntity
8
5-0
6
CONTINUOUS
62
7
100
AcDbLine
10
589.460000000000
20
468.040000000000
30
0.0
11
589.960000000000
21
468.240000000000
31
0.0
0
LINE
5
905
100
AcDbEntity
8
5-0
6
CONTINUOUS
62
7
100
AcDbLine
10
589.960000000000
20
468.240000000000
30
0.0
11
590.450000000000
21
468.460000000000
31
0.0
0
LINE
5
906
100
AcDbEntity
8
5-0
6
CONTINUOUS
62
7
100
AcDbLine
10
590.450000000000
20
468.460000000000
30
0.0
11
590.940000000000
21
468.690000000000
31
0.0
0
LINE
5
907
100
AcDbEntity
8
5-0
6
CONTINUOUS
62
7
100
AcDbLine
10
590.940000000000
20
468.690000000000
30
0.0
11
591.220000000000
21
468.820000000000
31
0.0
0
LINE
5
908
100
AcDbEntity
8
5-0
6
CONTINUOUS
62
7
100
AcDbLine
10
591.230000000000
20
468.820000000000
30
0.0
11
592.230000000000
21
469.550000000000
31
0.0
0
LINE
5
909
100
AcDbEntity
8
5-0
6
CONTINUOUS
62
7
100
AcDbLine
10
592.230000000000
20
469.550000000000
30
0.0
11
593.480000000000
21
470.750000000000
31
0.0
0
LINE
5
90a
100
AcDbEntity
8
5-0
6
CONTINUOUS
62
7
100
AcDbLine
10
593.480000000000
20
470.750000000000
30
0.0
11
595.120000000000
21
472.610000000000
31
0.0
0
LINE
5
90b
100
AcDbEntity
8
5-0
6
CONTINUOUS
62
7
100
AcDbLine
10
595.120000000000
20
472.610000000000
30
0.0
11
596.130000000000
21
473.840000000000
31
0.0
0
LINE
5
90c
100
AcDbEntity
8
5-0
6
CONTINUOUS
62
7
100
AcDbLine
10
596.130000000000
20
473.840000000000
30
0.0
11
597.430000000000
21
475.470000000000
31
0.0
0
LINE
5
90d
100
AcDbEntity
8
5-0
6
CONTINUOUS
62
7
100
AcDbLine
10
597.430000000000
20
475.470000000000
30
0.0
11
599.880000000000
21
478.520000000000
31
0.0
0
LINE
5
90e
100
AcDbEntity
8
5-0
6
CONTINUOUS
62
7
100
AcDbLine
10
599.880000000000
20
478.520000000000
30
0.0
11
602.760000000000
21
481.830000000000
31
0.0
0
LINE
5
90f
100
AcDbEntity
8
5-0
6
CONTINUOUS
62
7
100
AcDbLine
10
602.760000000000
20
481.830000000000
30
0.0
11
606.100000000000
21
485.110000000000
31
0.0
0
LINE
5
910
100
AcDbEntity
8
5-0
6
CONTINUOUS
62
7
100
AcDbLine
10
606.100000000000
20
485.110000000000
30
0.0
11
608.530000000000
21
487.100000000000
31
0.0
0
LINE
5
911
100
AcDbEntity
8
5-0
6
CONTINUOUS
62
7
100
AcDbLine
10
608.530000000000
20
487.100000000000
30
0.0
11
610.610000000000
21
488.580000000000
31
0.0
0
LINE
5
912
100
AcDbEntity
8
5-0
6
CONTINUOUS
62
7
100
AcDbLine
10
610.610000000000
20
488.580000000000
30
0.0
11
613.840000000000
21
490.530000000000
31
0.0
0
LINE
5
913
100
AcDbEntity
8
5-0
6
CONTINUOUS
62
7
100
AcDbLine
10
613.840000000000
20
490.530000000000
30
0.0
11
617.190000000000
21
492.190000000000
31
0.0
0
LINE
5
914
100
AcDbEntity
8
5-0
6
CONTINUOUS
62
7
100
AcDbLine
10
617.190000000000
20
492.190000000000
30
0.0
11
620.420000000000
21
493.540000000000
31
0.0
0
LINE
5
915
100
AcDbEntity
8
5-0
6
CONTINUOUS
62
7
100
AcDbLine
10
620.420000000000
20
493.540000000000
30
0.0
11
622.360000000000
21
494.250000000000
31
0.0
0
LINE
5
916
100
AcDbEntity
8
5-0
6
CONTINUOUS
62
7
100
AcDbLine
10
622.360000000000
20
494.250000000000
30
0.0
11
624.200000000000
21
494.880000000000
31
0.0
0
LINE
5
917
100
AcDbEntity
8
5-0
6
CONTINUOUS
62
7
100
AcDbLine
10
624.200000000000
20
494.880000000000
30
0.0
11
627.360000000000
21
495.800000000000
31
0.0
0
LINE
5
918
100
AcDbEntity
8
5-0
6
CONTINUOUS
62
7
100
AcDbLine
10
627.360000000000
20
495.800000000000
30
0.0
11
630.920000000000
21
496.560000000000
31
0.0
0
LINE
5
919
100
AcDbEntity
8
5-0
6
CONTINUOUS
62
7
100
AcDbLine
10
630.920000000000
20
496.560000000000
30
0.0
11
634.640000000000
21
497.000000000000
31
0.0
0
LINE
5
91a
100
AcDbEntity
8
5-0
6
CONTINUOUS
62
7
100
AcDbLine
10
634.640000000000
20
497.000000000000
30
0.0
11
637.200000000000
21
497.060000000000
31
0.0
0
LINE
5
91b
100
AcDbEntity
8
5-0
6
CONTINUOUS
62
7
100
AcDbLine
10
637.200000000000
20
497.060000000000
30
0.0
11
639.720000000000
21
496.940000000000
31
0.0
0
LINE
5
91c
100
AcDbEntity
8
5-0
6
CONTINUOUS
62
7
100
AcDbLine
10
639.720000000000
20
496.940000000000
30
0.0
11
643.300000000000
21
496.450000000000
31
0.0
0
LINE
5
91d
100
AcDbEntity
8
5-0
6
CONTINUOUS
62
7
100
AcDbLine
10
643.300000000000
20
496.450000000000
30
0.0
11
646.610000000000
21
495.720000000000
31
0.0
0
LINE
5
91e
100
AcDbEntity
8
5-0
6
CONTINUOUS
62
7
100
AcDbLine
10
646.610000000000
20
495.720000000000
30
0.0
11
649.480000000000
21
494.930000000000
31
0.0
0
LINE
5
91f
100
AcDbEntity
8
5-0
6
CONTINUOUS
62
7
100
AcDbLine
10
649.480000000000
20
494.930000000000
30
0.0
11
651.030000000000
21
494.470000000000
31
0.0
0
LINE
5
920
100
AcDbEntity
8
5-0
6
CONTINUOUS
62
7
100
AcDbLine
10
651.030000000000
20
494.470000000000
30
0.0
11
652.670000000000
21
493.980000000000
31
0.0
0
LINE
5
921
100
AcDbEntity
8
5-0
6
CONTINUOUS
62
7
100
AcDbLine
10
652.670000000000
20
493.980000000000
30
0.0
11
655.620000000000
21
493.020000000000
31
0.0
0
LINE
5
922
100
AcDbEntity
8
5-0
6
CONTINUOUS
62
7
100
AcDbLine
10
655.620000000000
20
493.020000000000
30
0.0
11
658.900000000000
21
491.790000000000
31
0.0
0
LINE
5
923
100
AcDbEntity
8
5-0
6
CONTINUOUS
62
7
100
AcDbLine
10
658.900000000000
20
491.790000000000
30
0.0
11
662.270000000000
21
490.200000000000
31
0.0
0
LINE
5
924
100
AcDbEntity
8
5-0
6
CONTINUOUS
62
7
100
AcDbLine
10
662.270000000000
20
490.200000000000
30
0.0
11
664.560000000000
21
488.870000000000
31
0.0
0
LINE
5
925
100
AcDbEntity
8
5-0
6
CONTINUOUS
62
7
100
AcDbLine
10
664.560000000000
20
488.870000000000
30
0.0
11
667.250000000000
21
486.990000000000
31
0.0
0
LINE
5
926
100
AcDbEntity
8
5-0
6
CONTINUOUS
62
7
100
AcDbLine
10
667.250000000000
20
486.990000000000
30
0.0
11
670.860000000000
21
483.830000000000
31
0.0
0
LINE
5
927
100
AcDbEntity
8
5-0
6
CONTINUOUS
62
7
100
AcDbLine
10
670.860000000000
20
483.830000000000
30
0.0
11
673.910000000000
21
480.600000000000
31
0.0
0
LINE
5
928
100
AcDbEntity
8
5-0
6
CONTINUOUS
62
7
100
AcDbLine
10
673.910000000000
20
480.600000000000
30
0.0
11
676.430000000000
21
477.640000000000
31
0.0
0
LINE
5
929
100
AcDbEntity
8
5-0
6
CONTINUOUS
62
7
100
AcDbLine
10
676.430000000000
20
477.640000000000
30
0.0
11
677.730000000000
21
476.090000000000
31
0.0
0
LINE
5
92a
100
AcDbEntity
8
5-0
6
CONTINUOUS
62
7
100
AcDbLine
10
677.730000000000
20
476.090000000000
30
0.0
11
678.780000000000
21
474.850000000000
31
0.0
0
LINE
5
92b
100
AcDbEntity
8
5-0
6
CONTINUOUS
62
7
100
AcDbLine
10
678.780000000000
20
474.850000000000
30
0.0
11
680.510000000000
21
472.960000000000
31
0.0
0
LINE
5
92c
100
AcDbEntity
8
5-0
6
CONTINUOUS
62
7
100
AcDbLine
10
680.510000000000
20
472.960000000000
30
0.0
11
681.920000000000
21
471.620000000000
31
0.0
0
LINE
5
92d
100
AcDbEntity
8
5-0
6
CONTINUOUS
62
7
100
AcDbLine
10
681.920000000000
20
471.620000000000
30
0.0
11
683.190000000000
21
470.670000000000
31
0.0
0
LINE
5
92e
100
AcDbEntity
8
5-0
6
CONTINUOUS
62
7
100
AcDbLine
10
683.190000000000
20
470.670000000000
30
0.0
11
683.540000000000
21
470.460000000000
31
0.0
0
LINE
5
92f
100
AcDbEntity
8
5-0
6
CONTINUOUS
62
7
100
AcDbLine
10
683.540000000000
20
470.460000000000
30
0.0
11
683.730000000000
21
470.370000000000
31
0.0
0
LINE
5
930
100
AcDbEntity
8
5-0
6
CONTINUOUS
62
7
100
AcDbLine
10
683.730000000000
20
470.370000000000
30
0.0
11
684.960000000000
21
469.920000000000
31
0.0
0
LINE
5
931
100
AcDbEntity
8
5-0
6
CONTINUOUS
62
7
100
AcDbLine
10
684.960000000000
20
469.920000000000
30
0.0
11
686.510000000000
21
469.490000000000
31
0.0
0
LINE
5
932
100
AcDbEntity
8
5-0
6
CONTINUOUS
62
7
100
AcDbLine
10
686.510000000000
20
469.490000000000
30
0.0
11
688.540000000000
21
469.040000000000
31
0.0
0
LINE
5
933
100
AcDbEntity
8
5-0
6
CONTINUOUS
62
7
100
AcDbLine
10
688.540000000000
20
469.040000000000
30
0.0
11
689.840000000000
21
468.770000000000
31
0.0
0
LINE
5
934
100
AcDbEntity
8
5-0
6
CONTINUOUS
62
7
100
AcDbLine
10
689.840000000000
20
468.770000000000
30
0.0
11
690.630000000000
21
468.610000000000
31
0.0
0
LINE
5
935
100
AcDbEntity
8
5-0
6
CONTINUOUS
62
7
100
AcDbLine
10
690.630000000000
20
468.610000000000
30
0.0
11
691.680000000000
21
468.390000000000
31
0.0
0
LINE
5
936
100
AcDbEntity
8
5-0
6
CONTINUOUS
62
7
100
AcDbLine
10
691.680000000000
20
468.390000000000
30
0.0
11
692.530000000000
21
468.220000000000
31
0.0
0
LINE
5
937
100
AcDbEntity
8
5-0
6
CONTINUOUS
62
7
100
AcDbLine
10
692.530000000000
20
468.220000000000
30
0.0
11
693.350000000000
21
468.050000000000
31
0.0
0
LINE
5
938
100
AcDbEntity
8
1-0
6
CONTINUOUS
62
7
100
AcDbLine
10
1007.820000000000
20
1043.640000000000
30
0.0
11
1001.480000000000
21
1043.310000000000
31
0.0
0
LINE
5
939
100
AcDbEntity
8
1-0
6
CONTINUOUS
62
7
100
AcDbLine
10
1001.480000000000
20
1043.310000000000
30
0.0
11
1000.150000000000
21
1042.970000000000
31
0.0
0
LINE
5
93a
100
AcDbEntity
8
1-0
6
CONTINUOUS
62
7
100
AcDbLine
10
1000.150000000000
20
1042.970000000000
30
0.0
11
999.260000000000
21
1042.640000000000
31
0.0
0
LINE
5
93b
100
AcDbEntity
8
1-0
6
CONTINUOUS
62
7
100
AcDbLine
10
999.260000000000
20
1042.640000000000
30
0.0
11
998.820000000000
21
1042.310000000000
31
0.0
0
LINE
5
93c
100
AcDbEntity
8
1-0
6
CONTINUOUS
62
7
100
AcDbLine
10
998.820000000000
20
1042.310000000000
30
0.0
11
998.820000000000
21
1041.970000000000
31
0.0
0
LINE
5
93d
100
AcDbEntity
8
1-0
6
CONTINUOUS
62
7
100
AcDbLine
10
998.820000000000
20
1041.970000000000
30
0.0
11
999.260000000000
21
1041.640000000000
31
0.0
0
LINE
5
93e
100
AcDbEntity
8
1-0
6
CONTINUOUS
62
7
100
AcDbLine
10
999.260000000000
20
1041.640000000000
30
0.0
11
1000.150000000000
21
1041.310000000000
31
0.0
0
LINE
5
93f
100
AcDbEntity
8
1-0
6
CONTINUOUS
62
7
100
AcDbLine
10
1000.150000000000
20
1041.310000000000
30
0.0
11
1001.480000000000
21
1040.970000000000
31
0.0
0
LINE
5
940
100
AcDbEntity
8
1-0
6
CONTINUOUS
62
7
100
AcDbLine
10
1001.480000000000
20
1040.970000000000
30
0.0
11
1007.820000000000
21
1040.640000000000
31
0.0
0
LINE
5
941
100
AcDbEntity
8
1-0
6
CONTINUOUS
62
7
100
AcDbLine
10
1033.920000000000
20
1043.640000000000
30
0.0
11
1040.250000000000
21
1043.310000000000
31
0.0
0
LINE
5
942
100
AcDbEntity
8
1-0
6
CONTINUOUS
62
7
100
AcDbLine
10
1040.250000000000
20
1043.310000000000
30
0.0
11
1041.580000000000
21
1042.970000000000
31
0.0
0
LINE
5
943
100
AcDbEntity
8
1-0
6
CONTINUOUS
62
7
100
AcDbLine
10
1041.580000000000
20
1042.970000000000
30
0.0
11
1042.470000000000
21
1042.640000000000
31
0.0
0
LINE
5
944
100
AcDbEntity
8
1-0
6
CONTINUOUS
62
7
100
AcDbLine
10
1042.470000000000
20
1042.640000000000
30
0.0
11
1042.920000000000
21
1042.310000000000
31
0.0
0
LINE
5
945
100
AcDbEntity
8
1-0
6
CONTINUOUS
62
7
100
AcDbLine
10
1042.920000000000
20
1042.310000000000
30
0.0
11
1042.920000000000
21
1041.970000000000
31
0.0
0
LINE
5
946
100
AcDbEntity
8
1-0
6
CONTINUOUS
62
7
100
AcDbLine
10
1042.920000000000
20
1041.970000000000
30
0.0
11
1042.470000000000
21
1041.640000000000
31
0.0
0
LINE
5
947
100
AcDbEntity
8
1-0
6
CONTINUOUS
62
7
100
AcDbLine
10
1042.470000000000
20
1041.640000000000
30
0.0
11
1041.580000000000
21
1041.310000000000
31
0.0
0
LINE
5
948
100
AcDbEntity
8
1-0
6
CONTINUOUS
62
7
100
AcDbLine
10
1041.580000000000
20
1041.310000000000
30
0.0
11
1040.250000000000
21
1040.970000000000
31
0.0
0
LINE
5
949
100
AcDbEntity
8
1-0
6
CONTINUOUS
62
7
100
AcDbLine
10
1040.250000000000
20
1040.970000000000
30
0.0
11
1033.920000000000
21
1040.640000000000
31
0.0
0
LINE
5
94a
100
AcDbEntity
8
1-0
6
CONTINUOUS
62
7
100
AcDbLine
10
1042.420000000000
20
465.190000000000
30
0.0
11
1043.890000000000
21
465.480000000000
31
0.0
0
LINE
5
94b
100
AcDbEntity
8
1-0
6
CONTINUOUS
62
7
100
AcDbLine
10
1043.890000000000
20
465.480000000000
30
0.0
11
1046.400000000000
21
466.020000000000
31
0.0
0
LINE
5
94c
100
AcDbEntity
8
1-0
6
CONTINUOUS
62
7
100
AcDbLine
10
1046.400000000000
20
466.020000000000
30
0.0
11
1048.840000000000
21
466.680000000000
31
0.0
0
LINE
5
94d
100
AcDbEntity
8
1-0
6
CONTINUOUS
62
7
100
AcDbLine
10
1048.840000000000
20
466.680000000000
30
0.0
11
1051.150000000000
21
467.560000000000
31
0.0
0
LINE
5
94e
100
AcDbEntity
8
1-0
6
CONTINUOUS
62
7
100
AcDbLine
10
1051.150000000000
20
467.560000000000
30
0.0
11
1052.420000000000
21
468.190000000000
31
0.0
0
LINE
5
94f
100
AcDbEntity
8
1-0
6
CONTINUOUS
62
7
100
AcDbLine
10
1052.420000000000
20
468.190000000000
30
0.0
11
1054.030000000000
21
469.230000000000
31
0.0
0
LINE
5
950
100
AcDbEntity
8
1-0
6
CONTINUOUS
62
7
100
AcDbLine
10
1054.030000000000
20
469.230000000000
30
0.0
11
1056.570000000000
21
471.410000000000
31
0.0
0
LINE
5
951
100
AcDbEntity
8
1-0
6
CONTINUOUS
62
7
100
AcDbLine
10
1056.570000000000
20
471.410000000000
30
0.0
11
1058.910000000000
21
473.930000000000
31
0.0
0
LINE
5
952
100
AcDbEntity
8
1-0
6
CONTINUOUS
62
7
100
AcDbLine
10
1058.910000000000
20
473.930000000000
30
0.0
11
1061.130000000000
21
476.630000000000
31
0.0
0
LINE
5
953
100
AcDbEntity
8
1-0
6
CONTINUOUS
62
7
100
AcDbLine
10
1061.130000000000
20
476.630000000000
30
0.0
11
1062.420000000000
21
478.190000000000
31
0.0
0
LINE
5
954
100
AcDbEntity
8
1-0
6
CONTINUOUS
62
7
100
AcDbLine
10
1062.420000000000
20
478.190000000000
30
0.0
11
1063.710000000000
21
479.730000000000
31
0.0
0
LINE
5
955
100
AcDbEntity
8
1-0
6
CONTINUOUS
62
7
100
AcDbLine
10
1063.710000000000
20
479.730000000000
30
0.0
11
1066.010000000000
21
482.280000000000
31
0.0
0
LINE
5
956
100
AcDbEntity
8
1-0
6
CONTINUOUS
62
7
100
AcDbLine
10
1066.010000000000
20
482.280000000000
30
0.0
11
1068.390000000000
21
484.700000000000
31
0.0
0
LINE
5
957
100
AcDbEntity
8
1-0
6
CONTINUOUS
62
7
100
AcDbLine
10
1068.390000000000
20
484.700000000000
30
0.0
11
1070.900000000000
21
486.960000000000
31
0.0
0
LINE
5
958
100
AcDbEntity
8
1-0
6
CONTINUOUS
62
7
100
AcDbLine
10
1070.900000000000
20
486.960000000000
30
0.0
11
1072.420000000000
21
488.190000000000
31
0.0
0
LINE
5
959
100
AcDbEntity
8
1-0
6
CONTINUOUS
62
7
100
AcDbLine
10
1072.420000000000
20
488.190000000000
30
0.0
11
1073.690000000000
21
489.160000000000
31
0.0
0
LINE
5
95a
100
AcDbEntity
8
1-0
6
CONTINUOUS
62
7
100
AcDbLine
10
1073.690000000000
20
489.160000000000
30
0.0
11
1075.980000000000
21
490.720000000000
31
0.0
0
LINE
5
95b
100
AcDbEntity
8
1-0
6
CONTINUOUS
62
7
100
AcDbLine
10
1075.980000000000
20
490.720000000000
30
0.0
11
1078.350000000000
21
492.160000000000
31
0.0
0
LINE
5
95c
100
AcDbEntity
8
1-0
6
CONTINUOUS
62
7
100
AcDbLine
10
1078.350000000000
20
492.160000000000
30
0.0
11
1080.810000000000
21
493.480000000000
31
0.0
0
LINE
5
95d
100
AcDbEntity
8
1-0
6
CONTINUOUS
62
7
100
AcDbLine
10
1080.810000000000
20
493.480000000000
30
0.0
11
1082.270000000000
21
494.190000000000
31
0.0
0
LINE
5
95e
100
AcDbEntity
8
1-0
6
CONTINUOUS
62
7
100
AcDbLine
10
1082.270000000000
20
494.190000000000
30
0.0
11
1083.600000000000
21
494.790000000000
31
0.0
0
LINE
5
95f
100
AcDbEntity
8
1-0
6
CONTINUOUS
62
7
100
AcDbLine
10
1083.600000000000
20
494.790000000000
30
0.0
11
1085.920000000000
21
495.720000000000
31
0.0
0
LINE
5
960
100
AcDbEntity
8
1-0
6
CONTINUOUS
62
7
100
AcDbLine
10
1085.920000000000
20
495.720000000000
30
0.0
11
1088.290000000000
21
496.470000000000
31
0.0
0
LINE
5
961
100
AcDbEntity
8
1-0
6
CONTINUOUS
62
7
100
AcDbLine
10
1088.290000000000
20
496.470000000000
30
0.0
11
1090.700000000000
21
497.010000000000
31
0.0
0
LINE
5
962
100
AcDbEntity
8
1-0
6
CONTINUOUS
62
7
100
AcDbLine
10
1090.700000000000
20
497.010000000000
30
0.0
11
1092.120000000000
21
497.190000000000
31
0.0
0
LINE
5
963
100
AcDbEntity
8
1-0
6
CONTINUOUS
62
7
100
AcDbLine
10
1092.120000000000
20
497.190000000000
30
0.0
11
1093.550000000000
21
497.290000000000
31
0.0
0
LINE
5
964
100
AcDbEntity
8
1-0
6
CONTINUOUS
62
7
100
AcDbLine
10
1093.550000000000
20
497.290000000000
30
0.0
11
1096.040000000000
21
497.240000000000
31
0.0
0
LINE
5
965
100
AcDbEntity
8
1-0
6
CONTINUOUS
62
7
100
AcDbLine
10
1096.040000000000
20
497.240000000000
30
0.0
11
1098.520000000000
21
496.960000000000
31
0.0
0
LINE
5
966
100
AcDbEntity
8
1-0
6
CONTINUOUS
62
7
100
AcDbLine
10
1098.520000000000
20
496.960000000000
30
0.0
11
1101.000000000000
21
496.510000000000
31
0.0
0
LINE
5
967
100
AcDbEntity
8
1-0
6
CONTINUOUS
62
7
100
AcDbLine
10
1101.000000000000
20
496.510000000000
30
0.0
11
1102.420000000000
21
496.190000000000
31
0.0
0
LINE
5
968
100
AcDbEntity
8
1-0
6
CONTINUOUS
62
7
100
AcDbLine
10
1102.420000000000
20
496.190000000000
30
0.0
11
1103.830000000000
21
495.840000000000
31
0.0
0
LINE
5
969
100
AcDbEntity
8
1-0
6
CONTINUOUS
62
7
100
AcDbLine
10
1103.830000000000
20
495.840000000000
30
0.0
11
1106.250000000000
21
495.160000000000
31
0.0
0
LINE
5
96a
100
AcDbEntity
8
1-0
6
CONTINUOUS
62
7
100
AcDbLine
10
1106.250000000000
20
495.160000000000
30
0.0
11
1108.650000000000
21
494.420000000000
31
0.0
0
LINE
5
96b
100
AcDbEntity
8
1-0
6
CONTINUOUS
62
7
100
AcDbLine
10
1108.650000000000
20
494.420000000000
30
0.0
11
1111.030000000000
21
493.650000000000
31
0.0
0
LINE
5
96c
100
AcDbEntity
8
1-0
6
CONTINUOUS
62
7
100
AcDbLine
10
1111.030000000000
20
493.650000000000
30
0.0
11
1112.420000000000
21
493.190000000000
31
0.0
0
LINE
5
96d
100
AcDbEntity
8
1-0
6
CONTINUOUS
62
7
100
AcDbLine
10
1112.420000000000
20
493.190000000000
30
0.0
11
1113.850000000000
21
492.720000000000
31
0.0
0
LINE
5
96e
100
AcDbEntity
8
1-0
6
CONTINUOUS
62
7
100
AcDbLine
10
1113.850000000000
20
492.720000000000
30
0.0
11
1116.310000000000
21
491.880000000000
31
0.0
0
LINE
5
96f
100
AcDbEntity
8
1-0
6
CONTINUOUS
62
7
100
AcDbLine
10
1116.310000000000
20
491.880000000000
30
0.0
11
1118.740000000000
21
490.950000000000
31
0.0
0
LINE
5
970
100
AcDbEntity
8
1-0
6
CONTINUOUS
62
7
100
AcDbLine
10
1118.740000000000
20
490.950000000000
30
0.0
11
1121.100000000000
21
489.890000000000
31
0.0
0
LINE
5
971
100
AcDbEntity
8
1-0
6
CONTINUOUS
62
7
100
AcDbLine
10
1121.100000000000
20
489.890000000000
30
0.0
11
1122.420000000000
21
489.190000000000
31
0.0
0
LINE
5
972
100
AcDbEntity
8
1-0
6
CONTINUOUS
62
7
100
AcDbLine
10
1122.420000000000
20
489.190000000000
30
0.0
11
1123.440000000000
21
488.590000000000
31
0.0
0
LINE
5
973
100
AcDbEntity
8
1-0
6
CONTINUOUS
62
7
100
AcDbLine
10
1123.440000000000
20
488.590000000000
30
0.0
11
1125.160000000000
21
487.450000000000
31
0.0
0
LINE
5
974
100
AcDbEntity
8
1-0
6
CONTINUOUS
62
7
100
AcDbLine
10
1125.160000000000
20
487.450000000000
30
0.0
11
1126.830000000000
21
486.220000000000
31
0.0
0
LINE
5
975
100
AcDbEntity
8
1-0
6
CONTINUOUS
62
7
100
AcDbLine
10
1126.830000000000
20
486.220000000000
30
0.0
11
1128.470000000000
21
484.950000000000
31
0.0
0
LINE
5
976
100
AcDbEntity
8
1-0
6
CONTINUOUS
62
7
100
AcDbLine
10
1128.470000000000
20
484.950000000000
30
0.0
11
1129.420000000000
21
484.190000000000
31
0.0
0
LINE
5
977
100
AcDbEntity
8
1-0
6
CONTINUOUS
62
7
100
AcDbLine
10
899.420000000000
20
465.190000000000
30
0.0
11
900.880000000000
21
465.330000000000
31
0.0
0
LINE
5
978
100
AcDbEntity
8
1-0
6
CONTINUOUS
62
7
100
AcDbLine
10
900.880000000000
20
465.330000000000
30
0.0
11
903.370000000000
21
465.620000000000
31
0.0
0
LINE
5
979
100
AcDbEntity
8
1-0
6
CONTINUOUS
62
7
100
AcDbLine
10
903.370000000000
20
465.620000000000
30
0.0
11
905.800000000000
21
466.040000000000
31
0.0
0
LINE
5
97a
100
AcDbEntity
8
1-0
6
CONTINUOUS
62
7
100
AcDbLine
10
905.800000000000
20
466.040000000000
30
0.0
11
908.130000000000
21
466.680000000000
31
0.0
0
LINE
5
97b
100
AcDbEntity
8
1-0
6
CONTINUOUS
62
7
100
AcDbLine
10
908.130000000000
20
466.680000000000
30
0.0
11
909.420000000000
21
467.190000000000
31
0.0
0
LINE
5
97c
100
AcDbEntity
8
1-0
6
CONTINUOUS
62
7
100
AcDbLine
10
909.420000000000
20
467.190000000000
30
0.0
11
911.030000000000
21
468.040000000000
31
0.0
0
LINE
5
97d
100
AcDbEntity
8
1-0
6
CONTINUOUS
62
7
100
AcDbLine
10
911.030000000000
20
468.040000000000
30
0.0
11
913.610000000000
21
469.920000000000
31
0.0
0
LINE
5
97e
100
AcDbEntity
8
1-0
6
CONTINUOUS
62
7
100
AcDbLine
10
913.610000000000
20
469.920000000000
30
0.0
11
915.980000000000
21
472.180000000000
31
0.0
0
LINE
5
97f
100
AcDbEntity
8
1-0
6
CONTINUOUS
62
7
100
AcDbLine
10
915.980000000000
20
472.180000000000
30
0.0
11
918.190000000000
21
474.690000000000
31
0.0
0
LINE
5
980
100
AcDbEntity
8
1-0
6
CONTINUOUS
62
7
100
AcDbLine
10
918.190000000000
20
474.690000000000
30
0.0
11
919.420000000000
21
476.190000000000
31
0.0
0
LINE
5
981
100
AcDbEntity
8
1-0
6
CONTINUOUS
62
7
100
AcDbLine
10
919.420000000000
20
476.190000000000
30
0.0
11
920.740000000000
21
477.860000000000
31
0.0
0
LINE
5
982
100
AcDbEntity
8
1-0
6
CONTINUOUS
62
7
100
AcDbLine
10
920.740000000000
20
477.860000000000
30
0.0
11
923.010000000000
21
480.680000000000
31
0.0
0
LINE
5
983
100
AcDbEntity
8
1-0
6
CONTINUOUS
62
7
100
AcDbLine
10
923.010000000000
20
480.680000000000
30
0.0
11
925.350000000000
21
483.370000000000
31
0.0
0
LINE
5
984
100
AcDbEntity
8
1-0
6
CONTINUOUS
62
7
100
AcDbLine
10
925.350000000000
20
483.370000000000
30
0.0
11
927.850000000000
21
485.820000000000
31
0.0
0
LINE
5
985
100
AcDbEntity
8
1-0
6
CONTINUOUS
62
7
100
AcDbLine
10
927.850000000000
20
485.820000000000
30
0.0
11
929.420000000000
21
487.110000000000
31
0.0
0
LINE
5
986
100
AcDbEntity
8
1-0
6
CONTINUOUS
62
7
100
AcDbLine
10
929.420000000000
20
487.110000000000
30
0.0
11
930.670000000000
21
488.000000000000
31
0.0
0
LINE
5
987
100
AcDbEntity
8
1-0
6
CONTINUOUS
62
7
100
AcDbLine
10
930.670000000000
20
488.000000000000
30
0.0
11
932.970000000000
21
489.380000000000
31
0.0
0
LINE
5
988
100
AcDbEntity
8
1-0
6
CONTINUOUS
62
7
100
AcDbLine
10
932.970000000000
20
489.380000000000
30
0.0
11
935.390000000000
21
490.590000000000
31
0.0
0
LINE
5
989
100
AcDbEntity
8
1-0
6
CONTINUOUS
62
7
100
AcDbLine
10
935.390000000000
20
490.590000000000
30
0.0
11
937.920000000000
21
491.640000000000
31
0.0
0
LINE
5
98a
100
AcDbEntity
8
1-0
6
CONTINUOUS
62
7
100
AcDbLine
10
937.920000000000
20
491.640000000000
30
0.0
11
939.420000000000
21
492.190000000000
31
0.0
0
LINE
5
98b
100
AcDbEntity
8
1-0
6
CONTINUOUS
62
7
100
AcDbLine
10
939.420000000000
20
492.190000000000
30
0.0
11
940.790000000000
21
492.660000000000
31
0.0
0
LINE
5
98c
100
AcDbEntity
8
1-0
6
CONTINUOUS
62
7
100
AcDbLine
10
940.790000000000
20
492.660000000000
30
0.0
11
943.180000000000
21
493.360000000000
31
0.0
0
LINE
5
98d
100
AcDbEntity
8
1-0
6
CONTINUOUS
62
7
100
AcDbLine
10
943.180000000000
20
493.360000000000
30
0.0
11
945.590000000000
21
493.880000000000
31
0.0
0
LINE
5
98e
100
AcDbEntity
8
1-0
6
CONTINUOUS
62
7
100
AcDbLine
10
945.590000000000
20
493.880000000000
30
0.0
11
948.010000000000
21
494.160000000000
31
0.0
0
LINE
5
98f
100
AcDbEntity
8
1-0
6
CONTINUOUS
62
7
100
AcDbLine
10
948.010000000000
20
494.160000000000
30
0.0
11
949.420000000000
21
494.190000000000
31
0.0
0
LINE
5
990
100
AcDbEntity
8
1-0
6
CONTINUOUS
62
7
100
AcDbLine
10
949.420000000000
20
494.190000000000
30
0.0
11
950.820000000000
21
494.130000000000
31
0.0
0
LINE
5
991
100
AcDbEntity
8
1-0
6
CONTINUOUS
62
7
100
AcDbLine
10
950.820000000000
20
494.130000000000
30
0.0
11
953.220000000000
21
493.800000000000
31
0.0
0
LINE
5
992
100
AcDbEntity
8
1-0
6
CONTINUOUS
62
7
100
AcDbLine
10
953.220000000000
20
493.800000000000
30
0.0
11
955.630000000000
21
493.270000000000
31
0.0
0
LINE
5
993
100
AcDbEntity
8
1-0
6
CONTINUOUS
62
7
100
AcDbLine
10
955.630000000000
20
493.270000000000
30
0.0
11
958.030000000000
21
492.610000000000
31
0.0
0
LINE
5
994
100
AcDbEntity
8
1-0
6
CONTINUOUS
62
7
100
AcDbLine
10
958.030000000000
20
492.610000000000
30
0.0
11
959.420000000000
21
492.190000000000
31
0.0
0
LINE
5
995
100
AcDbEntity
8
1-0
6
CONTINUOUS
62
7
100
AcDbLine
10
959.420000000000
20
492.190000000000
30
0.0
11
960.880000000000
21
491.750000000000
31
0.0
0
LINE
5
996
100
AcDbEntity
8
1-0
6
CONTINUOUS
62
7
100
AcDbLine
10
960.880000000000
20
491.750000000000
30
0.0
11
963.390000000000
21
490.940000000000
31
0.0
0
LINE
5
997
100
AcDbEntity
8
1-0
6
CONTINUOUS
62
7
100
AcDbLine
10
963.390000000000
20
490.940000000000
30
0.0
11
965.820000000000
21
490.030000000000
31
0.0
0
LINE
5
998
100
AcDbEntity
8
1-0
6
CONTINUOUS
62
7
100
AcDbLine
10
965.820000000000
20
490.030000000000
30
0.0
11
968.140000000000
21
488.930000000000
31
0.0
0
LINE
5
999
100
AcDbEntity
8
1-0
6
CONTINUOUS
62
7
100
AcDbLine
10
968.140000000000
20
488.930000000000
30
0.0
11
969.420000000000
21
488.190000000000
31
0.0
0
LINE
5
99a
100
AcDbEntity
8
1-0
6
CONTINUOUS
62
7
100
AcDbLine
10
969.420000000000
20
488.190000000000
30
0.0
11
971.000000000000
21
487.090000000000
31
0.0
0
LINE
5
99b
100
AcDbEntity
8
1-0
6
CONTINUOUS
62
7
100
AcDbLine
10
971.000000000000
20
487.090000000000
30
0.0
11
973.520000000000
21
484.880000000000
31
0.0
0
LINE
5
99c
100
AcDbEntity
8
1-0
6
CONTINUOUS
62
7
100
AcDbLine
10
973.520000000000
20
484.880000000000
30
0.0
11
975.860000000000
21
482.400000000000
31
0.0
0
LINE
5
99d
100
AcDbEntity
8
1-0
6
CONTINUOUS
62
7
100
AcDbLine
10
975.860000000000
20
482.400000000000
30
0.0
11
978.120000000000
21
479.750000000000
31
0.0
0
LINE
5
99e
100
AcDbEntity
8
1-0
6
CONTINUOUS
62
7
100
AcDbLine
10
978.120000000000
20
479.750000000000
30
0.0
11
979.420000000000
21
478.190000000000
31
0.0
0
LINE
5
99f
100
AcDbEntity
8
1-0
6
CONTINUOUS
62
7
100
AcDbLine
10
979.420000000000
20
478.190000000000
30
0.0
11
980.670000000000
21
476.730000000000
31
0.0
0
LINE
5
9a0
100
AcDbEntity
8
1-0
6
CONTINUOUS
62
7
100
AcDbLine
10
980.670000000000
20
476.730000000000
30
0.0
11
982.900000000000
21
474.280000000000
31
0.0
0
LINE
5
9a1
100
AcDbEntity
8
1-0
6
CONTINUOUS
62
7
100
AcDbLine
10
982.900000000000
20
474.280000000000
30
0.0
11
985.270000000000
21
472.040000000000
31
0.0
0
LINE
5
9a2
100
AcDbEntity
8
1-0
6
CONTINUOUS
62
7
100
AcDbLine
10
985.270000000000
20
472.040000000000
30
0.0
11
987.820000000000
21
470.120000000000
31
0.0
0
LINE
5
9a3
100
AcDbEntity
8
1-0
6
CONTINUOUS
62
7
100
AcDbLine
10
987.820000000000
20
470.120000000000
30
0.0
11
989.420000000000
21
469.190000000000
31
0.0
0
LINE
5
9a4
100
AcDbEntity
8
1-0
6
CONTINUOUS
62
7
100
AcDbLine
10
989.420000000000
20
469.190000000000
30
0.0
11
990.710000000000
21
468.580000000000
31
0.0
0
LINE
5
9a5
100
AcDbEntity
8
1-0
6
CONTINUOUS
62
7
100
AcDbLine
10
990.710000000000
20
468.580000000000
30
0.0
11
993.060000000000
21
467.720000000000
31
0.0
0
LINE
5
9a6
100
AcDbEntity
8
1-0
6
CONTINUOUS
62
7
100
AcDbLine
10
993.060000000000
20
467.720000000000
30
0.0
11
995.490000000000
21
467.050000000000
31
0.0
0
LINE
5
9a7
100
AcDbEntity
8
1-0
6
CONTINUOUS
62
7
100
AcDbLine
10
995.490000000000
20
467.050000000000
30
0.0
11
997.980000000000
21
466.490000000000
31
0.0
0
LINE
5
9a8
100
AcDbEntity
8
1-0
6
CONTINUOUS
62
7
100
AcDbLine
10
997.980000000000
20
466.490000000000
30
0.0
11
999.420000000000
21
466.190000000000
31
0.0
0
LINE
5
9a9
100
AcDbEntity
8
1-0
6
CONTINUOUS
62
7
100
AcDbLine
10
999.420000000000
20
466.190000000000
30
0.0
11
1000.090000000000
21
466.060000000000
31
0.0
0
LINE
5
9aa
100
AcDbEntity
8
1-0
6
CONTINUOUS
62
7
100
AcDbLine
10
1000.090000000000
20
466.060000000000
30
0.0
11
1001.250000000000
21
465.820000000000
31
0.0
0
LINE
5
9ab
100
AcDbEntity
8
1-0
6
CONTINUOUS
62
7
100
AcDbLine
10
1001.250000000000
20
465.820000000000
30
0.0
11
1002.400000000000
21
465.590000000000
31
0.0
0
LINE
5
9ac
100
AcDbEntity
8
1-0
6
CONTINUOUS
62
7
100
AcDbLine
10
1002.400000000000
20
465.590000000000
30
0.0
11
1003.550000000000
21
465.350000000000
31
0.0
0
LINE
5
9ad
100
AcDbEntity
8
1-0
6
CONTINUOUS
62
7
100
AcDbLine
10
1003.550000000000
20
465.350000000000
30
0.0
11
1004.210000000000
21
465.220000000000
31
0.0
0
LINE
5
9ae
100
AcDbEntity
8
1-0
6
CONTINUOUS
62
7
100
AcDbLine
10
1004.210000000000
20
465.220000000000
30
0.0
11
1004.230000000000
21
465.220000000000
31
0.0
0
LINE
5
9af
100
AcDbEntity
8
1-0
6
CONTINUOUS
62
7
100
AcDbLine
10
1004.230000000000
20
465.220000000000
30
0.0
11
1004.260000000000
21
465.210000000000
31
0.0
0
LINE
5
9b0
100
AcDbEntity
8
1-0
6
CONTINUOUS
62
7
100
AcDbLine
10
1004.260000000000
20
465.210000000000
30
0.0
11
1004.280000000000
21
465.210000000000
31
0.0
0
LINE
5
9b1
100
AcDbEntity
8
1-0
6
CONTINUOUS
62
7
100
AcDbLine
10
1004.280000000000
20
465.210000000000
30
0.0
11
1004.310000000000
21
465.200000000000
31
0.0
0
LINE
5
9b2
100
AcDbEntity
8
1-0
6
CONTINUOUS
62
7
100
AcDbLine
10
1004.310000000000
20
465.200000000000
30
0.0
11
1004.330000000000
21
465.200000000000
31
0.0
0
LINE
5
9b3
100
AcDbEntity
8
1-0
6
CONTINUOUS
62
7
100
AcDbLine
10
1004.330000000000
20
465.200000000000
30
0.0
11
1004.340000000000
21
465.200000000000
31
0.0
0
LINE
5
9b4
100
AcDbEntity
8
1-0
6
CONTINUOUS
62
7
100
AcDbLine
10
1004.340000000000
20
465.200000000000
30
0.0
11
1004.370000000000
21
465.200000000000
31
0.0
0
LINE
5
9b5
100
AcDbEntity
8
1-0
6
CONTINUOUS
62
7
100
AcDbLine
10
1004.370000000000
20
465.200000000000
30
0.0
11
1004.390000000000
21
465.200000000000
31
0.0
0
LINE
5
9b6
100
AcDbEntity
8
1-0
6
CONTINUOUS
62
7
100
AcDbLine
10
1004.390000000000
20
465.200000000000
30
0.0
11
1004.420000000000
21
465.200000000000
31
0.0
0
LINE
5
9b7
100
AcDbEntity
8
1-0
6
CONTINUOUS
62
7
100
AcDbLine
10
1004.420000000000
20
465.200000000000
30
0.0
11
1004.440000000000
21
465.190000000000
31
0.0
0
LINE
5
9b8
100
AcDbEntity
8
1-0
6
CONTINUOUS
62
7
100
AcDbLine
10
1042.420000000000
20
479.190000000000
30
0.0
11
1043.910000000000
21
479.910000000000
31
0.0
0
LINE
5
9b9
100
AcDbEntity
8
1-0
6
CONTINUOUS
62
7
100
AcDbLine
10
1043.910000000000
20
479.910000000000
30
0.0
11
1046.460000000000
21
481.190000000000
31
0.0
0
LINE
5
9ba
100
AcDbEntity
8
1-0
6
CONTINUOUS
62
7
100
AcDbLine
10
1046.460000000000
20
481.190000000000
30
0.0
11
1048.910000000000
21
482.580000000000
31
0.0
0
LINE
5
9bb
100
AcDbEntity
8
1-0
6
CONTINUOUS
62
7
100
AcDbLine
10
1048.910000000000
20
482.580000000000
30
0.0
11
1051.190000000000
21
484.160000000000
31
0.0
0
LINE
5
9bc
100
AcDbEntity
8
1-0
6
CONTINUOUS
62
7
100
AcDbLine
10
1051.190000000000
20
484.160000000000
30
0.0
11
1052.420000000000
21
485.190000000000
31
0.0
0
LINE
5
9bd
100
AcDbEntity
8
1-0
6
CONTINUOUS
62
7
100
AcDbLine
10
1052.420000000000
20
485.190000000000
30
0.0
11
1053.930000000000
21
486.730000000000
31
0.0
0
LINE
5
9be
100
AcDbEntity
8
1-0
6
CONTINUOUS
62
7
100
AcDbLine
10
1053.930000000000
20
486.730000000000
30
0.0
11
1056.290000000000
21
489.660000000000
31
0.0
0
LINE
5
9bf
100
AcDbEntity
8
1-0
6
CONTINUOUS
62
7
100
AcDbLine
10
1056.290000000000
20
489.660000000000
30
0.0
11
1058.540000000000
21
492.730000000000
31
0.0
0
LINE
5
9c0
100
AcDbEntity
8
1-0
6
CONTINUOUS
62
7
100
AcDbLine
10
1058.540000000000
20
492.730000000000
30
0.0
11
1060.900000000000
21
495.660000000000
31
0.0
0
LINE
5
9c1
100
AcDbEntity
8
1-0
6
CONTINUOUS
62
7
100
AcDbLine
10
1060.900000000000
20
495.660000000000
30
0.0
11
1062.420000000000
21
497.190000000000
31
0.0
0
LINE
5
9c2
100
AcDbEntity
8
1-0
6
CONTINUOUS
62
7
100
AcDbLine
10
1062.420000000000
20
497.190000000000
30
0.0
11
1063.640000000000
21
498.230000000000
31
0.0
0
LINE
5
9c3
100
AcDbEntity
8
1-0
6
CONTINUOUS
62
7
100
AcDbLine
10
1063.640000000000
20
498.230000000000
30
0.0
11
1065.930000000000
21
499.820000000000
31
0.0
0
LINE
5
9c4
100
AcDbEntity
8
1-0
6
CONTINUOUS
62
7
100
AcDbLine
10
1065.930000000000
20
499.820000000000
30
0.0
11
1068.380000000000
21
501.210000000000
31
0.0
0
LINE
5
9c5
100
AcDbEntity
8
1-0
6
CONTINUOUS
62
7
100
AcDbLine
10
1068.380000000000
20
501.210000000000
30
0.0
11
1070.930000000000
21
502.480000000000
31
0.0
0
LINE
5
9c6
100
AcDbEntity
8
1-0
6
CONTINUOUS
62
7
100
AcDbLine
10
1070.930000000000
20
502.480000000000
30
0.0
11
1072.420000000000
21
503.190000000000
31
0.0
0
LINE
5
9c7
100
AcDbEntity
8
1-0
6
CONTINUOUS
62
7
100
AcDbLine
10
1072.420000000000
20
503.190000000000
30
0.0
11
1073.790000000000
21
503.850000000000
31
0.0
0
LINE
5
9c8
100
AcDbEntity
8
1-0
6
CONTINUOUS
62
7
100
AcDbLine
10
1073.790000000000
20
503.850000000000
30
0.0
11
1076.160000000000
21
504.940000000000
31
0.0
0
LINE
5
9c9
100
AcDbEntity
8
1-0
6
CONTINUOUS
62
7
100
AcDbLine
10
1076.160000000000
20
504.940000000000
30
0.0
11
1078.550000000000
21
505.940000000000
31
0.0
0
LINE
5
9ca
100
AcDbEntity
8
1-0
6
CONTINUOUS
62
7
100
AcDbLine
10
1078.550000000000
20
505.940000000000
30
0.0
11
1080.980000000000
21
506.790000000000
31
0.0
0
LINE
5
9cb
100
AcDbEntity
8
1-0
6
CONTINUOUS
62
7
100
AcDbLine
10
1080.980000000000
20
506.790000000000
30
0.0
11
1082.420000000000
21
507.190000000000
31
0.0
0
LINE
5
9cc
100
AcDbEntity
8
1-0
6
CONTINUOUS
62
7
100
AcDbLine
10
1082.420000000000
20
507.190000000000
30
0.0
11
1083.780000000000
21
507.500000000000
31
0.0
0
LINE
5
9cd
100
AcDbEntity
8
1-0
6
CONTINUOUS
62
7
100
AcDbLine
10
1083.780000000000
20
507.500000000000
30
0.0
11
1086.160000000000
21
507.890000000000
31
0.0
0
LINE
5
9ce
100
AcDbEntity
8
1-0
6
CONTINUOUS
62
7
100
AcDbLine
10
1086.160000000000
20
507.890000000000
30
0.0
11
1088.570000000000
21
508.110000000000
31
0.0
0
LINE
5
9cf
100
AcDbEntity
8
1-0
6
CONTINUOUS
62
7
100
AcDbLine
10
1088.570000000000
20
508.110000000000
30
0.0
11
1091.010000000000
21
508.200000000000
31
0.0
0
LINE
5
9d0
100
AcDbEntity
8
1-0
6
CONTINUOUS
62
7
100
AcDbLine
10
1091.010000000000
20
508.200000000000
30
0.0
11
1092.420000000000
21
508.190000000000
31
0.0
0
LINE
5
9d1
100
AcDbEntity
8
1-0
6
CONTINUOUS
62
7
100
AcDbLine
10
1092.420000000000
20
508.190000000000
30
0.0
11
1093.820000000000
21
508.160000000000
31
0.0
0
LINE
5
9d2
100
AcDbEntity
8
1-0
6
CONTINUOUS
62
7
100
AcDbLine
10
1093.820000000000
20
508.160000000000
30
0.0
11
1096.240000000000
21
508.020000000000
31
0.0
0
LINE
5
9d3
100
AcDbEntity
8
1-0
6
CONTINUOUS
62
7
100
AcDbLine
10
1096.240000000000
20
508.020000000000
30
0.0
11
1098.640000000000
21
507.780000000000
31
0.0
0
LINE
5
9d4
100
AcDbEntity
8
1-0
6
CONTINUOUS
62
7
100
AcDbLine
10
1098.640000000000
20
507.780000000000
30
0.0
11
1101.030000000000
21
507.440000000000
31
0.0
0
LINE
5
9d5
100
AcDbEntity
8
1-0
6
CONTINUOUS
62
7
100
AcDbLine
10
1101.030000000000
20
507.440000000000
30
0.0
11
1102.420000000000
21
507.190000000000
31
0.0
0
LINE
5
9d6
100
AcDbEntity
8
1-0
6
CONTINUOUS
62
7
100
AcDbLine
10
1102.420000000000
20
507.190000000000
30
0.0
11
1103.850000000000
21
506.910000000000
31
0.0
0
LINE
5
9d7
100
AcDbEntity
8
1-0
6
CONTINUOUS
62
7
100
AcDbLine
10
1103.850000000000
20
506.910000000000
30
0.0
11
1106.300000000000
21
506.320000000000
31
0.0
0
LINE
5
9d8
100
AcDbEntity
8
1-0
6
CONTINUOUS
62
7
100
AcDbLine
10
1106.300000000000
20
506.320000000000
30
0.0
11
1108.710000000000
21
505.610000000000
31
0.0
0
LINE
5
9d9
100
AcDbEntity
8
1-0
6
CONTINUOUS
62
7
100
AcDbLine
10
1108.710000000000
20
505.610000000000
30
0.0
11
1111.070000000000
21
504.760000000000
31
0.0
0
LINE
5
9da
100
AcDbEntity
8
1-0
6
CONTINUOUS
62
7
100
AcDbLine
10
1111.070000000000
20
504.760000000000
30
0.0
11
1112.420000000000
21
504.190000000000
31
0.0
0
LINE
5
9db
100
AcDbEntity
8
1-0
6
CONTINUOUS
62
7
100
AcDbLine
10
1112.420000000000
20
504.190000000000
30
0.0
11
1113.890000000000
21
503.510000000000
31
0.0
0
LINE
5
9dc
100
AcDbEntity
8
1-0
6
CONTINUOUS
62
7
100
AcDbLine
10
1113.890000000000
20
503.510000000000
30
0.0
11
1116.360000000000
21
502.190000000000
31
0.0
0
LINE
5
9dd
100
AcDbEntity
8
1-0
6
CONTINUOUS
62
7
100
AcDbLine
10
1116.360000000000
20
502.190000000000
30
0.0
11
1118.760000000000
21
500.720000000000
31
0.0
0
LINE
5
9de
100
AcDbEntity
8
1-0
6
CONTINUOUS
62
7
100
AcDbLine
10
1118.760000000000
20
500.720000000000
30
0.0
11
1121.090000000000
21
499.150000000000
31
0.0
0
LINE
5
9df
100
AcDbEntity
8
1-0
6
CONTINUOUS
62
7
100
AcDbLine
10
1121.090000000000
20
499.150000000000
30
0.0
11
1122.420000000000
21
498.190000000000
31
0.0
0
LINE
5
9e0
100
AcDbEntity
8
1-0
6
CONTINUOUS
62
7
100
AcDbLine
10
1122.420000000000
20
498.190000000000
30
0.0
11
1123.850000000000
21
497.130000000000
31
0.0
0
LINE
5
9e1
100
AcDbEntity
8
1-0
6
CONTINUOUS
62
7
100
AcDbLine
10
1123.850000000000
20
497.130000000000
30
0.0
11
1126.280000000000
21
495.240000000000
31
0.0
0
LINE
5
9e2
100
AcDbEntity
8
1-0
6
CONTINUOUS
62
7
100
AcDbLine
10
1126.280000000000
20
495.240000000000
30
0.0
11
1128.680000000000
21
493.300000000000
31
0.0
0
LINE
5
9e3
100
AcDbEntity
8
1-0
6
CONTINUOUS
62
7
100
AcDbLine
10
1128.680000000000
20
493.300000000000
30
0.0
11
1131.050000000000
21
491.340000000000
31
0.0
0
LINE
5
9e4
100
AcDbEntity
8
1-0
6
CONTINUOUS
62
7
100
AcDbLine
10
1131.050000000000
20
491.340000000000
30
0.0
11
1132.420000000000
21
490.190000000000
31
0.0
0
LINE
5
9e5
100
AcDbEntity
8
1-0
6
CONTINUOUS
62
7
100
AcDbLine
10
895.780000000000
20
478.190000000000
30
0.0
11
896.210000000000
21
478.210000000000
31
0.0
0
LINE
5
9e6
100
AcDbEntity
8
1-0
6
CONTINUOUS
62
7
100
AcDbLine
10
896.210000000000
20
478.210000000000
30
0.0
11
896.940000000000
21
478.260000000000
31
0.0
0
LINE
5
9e7
100
AcDbEntity
8
1-0
6
CONTINUOUS
62
7
100
AcDbLine
10
896.940000000000
20
478.260000000000
30
0.0
11
897.670000000000
21
478.310000000000
31
0.0
0
LINE
5
9e8
100
AcDbEntity
8
1-0
6
CONTINUOUS
62
7
100
AcDbLine
10
897.670000000000
20
478.310000000000
30
0.0
11
898.400000000000
21
478.390000000000
31
0.0
0
LINE
5
9e9
100
AcDbEntity
8
1-0
6
CONTINUOUS
62
7
100
AcDbLine
10
898.400000000000
20
478.390000000000
30
0.0
11
898.820000000000
21
478.440000000000
31
0.0
0
LINE
5
9ea
100
AcDbEntity
8
1-0
6
CONTINUOUS
62
7
100
AcDbLine
10
898.820000000000
20
478.440000000000
30
0.0
11
899.210000000000
21
478.500000000000
31
0.0
0
LINE
5
9eb
100
AcDbEntity
8
1-0
6
CONTINUOUS
62
7
100
AcDbLine
10
899.210000000000
20
478.500000000000
30
0.0
11
899.870000000000
21
478.620000000000
31
0.0
0
LINE
5
9ec
100
AcDbEntity
8
1-0
6
CONTINUOUS
62
7
100
AcDbLine
10
899.870000000000
20
478.620000000000
30
0.0
11
900.530000000000
21
478.770000000000
31
0.0
0
LINE
5
9ed
100
AcDbEntity
8
1-0
6
CONTINUOUS
62
7
100
AcDbLine
10
900.530000000000
20
478.770000000000
30
0.0
11
901.180000000000
21
478.950000000000
31
0.0
0
LINE
5
9ee
100
AcDbEntity
8
1-0
6
CONTINUOUS
62
7
100
AcDbLine
10
901.180000000000
20
478.950000000000
30
0.0
11
901.550000000000
21
479.080000000000
31
0.0
0
LINE
5
9ef
100
AcDbEntity
8
1-0
6
CONTINUOUS
62
7
100
AcDbLine
10
901.550000000000
20
479.080000000000
30
0.0
11
901.840000000000
21
479.180000000000
31
0.0
0
LINE
5
9f0
100
AcDbEntity
8
1-0
6
CONTINUOUS
62
7
100
AcDbLine
10
901.840000000000
20
479.180000000000
30
0.0
11
902.340000000000
21
479.390000000000
31
0.0
0
LINE
5
9f1
100
AcDbEntity
8
1-0
6
CONTINUOUS
62
7
100
AcDbLine
10
902.340000000000
20
479.390000000000
30
0.0
11
902.840000000000
21
479.600000000000
31
0.0
0
LINE
5
9f2
100
AcDbEntity
8
1-0
6
CONTINUOUS
62
7
100
AcDbLine
10
902.840000000000
20
479.600000000000
30
0.0
11
903.330000000000
21
479.830000000000
31
0.0
0
LINE
5
9f3
100
AcDbEntity
8
1-0
6
CONTINUOUS
62
7
100
AcDbLine
10
903.330000000000
20
479.830000000000
30
0.0
11
903.610000000000
21
479.960000000000
31
0.0
0
LINE
5
9f4
100
AcDbEntity
8
1-0
6
CONTINUOUS
62
7
100
AcDbLine
10
903.620000000000
20
479.960000000000
30
0.0
11
904.620000000000
21
480.690000000000
31
0.0
0
LINE
5
9f5
100
AcDbEntity
8
1-0
6
CONTINUOUS
62
7
100
AcDbLine
10
904.620000000000
20
480.690000000000
30
0.0
11
905.870000000000
21
481.890000000000
31
0.0
0
LINE
5
9f6
100
AcDbEntity
8
1-0
6
CONTINUOUS
62
7
100
AcDbLine
10
905.870000000000
20
481.890000000000
30
0.0
11
907.510000000000
21
483.750000000000
31
0.0
0
LINE
5
9f7
100
AcDbEntity
8
1-0
6
CONTINUOUS
62
7
100
AcDbLine
10
907.510000000000
20
483.750000000000
30
0.0
11
908.520000000000
21
484.990000000000
31
0.0
0
LINE
5
9f8
100
AcDbEntity
8
1-0
6
CONTINUOUS
62
7
100
AcDbLine
10
908.520000000000
20
484.990000000000
30
0.0
11
909.810000000000
21
486.610000000000
31
0.0
0
LINE
5
9f9
100
AcDbEntity
8
1-0
6
CONTINUOUS
62
7
100
AcDbLine
10
909.810000000000
20
486.610000000000
30
0.0
11
912.270000000000
21
489.660000000000
31
0.0
0
LINE
5
9fa
100
AcDbEntity
8
1-0
6
CONTINUOUS
62
7
100
AcDbLine
10
912.270000000000
20
489.660000000000
30
0.0
11
915.140000000000
21
492.970000000000
31
0.0
0
LINE
5
9fb
100
AcDbEntity
8
1-0
6
CONTINUOUS
62
7
100
AcDbLine
10
915.140000000000
20
492.970000000000
30
0.0
11
918.490000000000
21
496.250000000000
31
0.0
0
LINE
5
9fc
100
AcDbEntity
8
1-0
6
CONTINUOUS
62
7
100
AcDbLine
10
918.490000000000
20
496.250000000000
30
0.0
11
920.920000000000
21
498.240000000000
31
0.0
0
LINE
5
9fd
100
AcDbEntity
8
1-0
6
CONTINUOUS
62
7
100
AcDbLine
10
920.920000000000
20
498.240000000000
30
0.0
11
923.000000000000
21
499.720000000000
31
0.0
0
LINE
5
9fe
100
AcDbEntity
8
1-0
6
CONTINUOUS
62
7
100
AcDbLine
10
923.000000000000
20
499.720000000000
30
0.0
11
926.230000000000
21
501.670000000000
31
0.0
0
LINE
5
9ff
100
AcDbEntity
8
1-0
6
CONTINUOUS
62
7
100
AcDbLine
10
926.230000000000
20
501.670000000000
30
0.0
11
929.580000000000
21
503.330000000000
31
0.0
0
LINE
5
a00
100
AcDbEntity
8
1-0
6
CONTINUOUS
62
7
100
AcDbLine
10
929.580000000000
20
503.330000000000
30
0.0
11
932.800000000000
21
504.680000000000
31
0.0
0
LINE
5
a01
100
AcDbEntity
8
1-0
6
CONTINUOUS
62
7
100
AcDbLine
10
932.800000000000
20
504.680000000000
30
0.0
11
934.750000000000
21
505.400000000000
31
0.0
0
LINE
5
a02
100
AcDbEntity
8
1-0
6
CONTINUOUS
62
7
100
AcDbLine
10
934.750000000000
20
505.400000000000
30
0.0
11
936.580000000000
21
506.020000000000
31
0.0
0
LINE
5
a03
100
AcDbEntity
8
1-0
6
CONTINUOUS
62
7
100
AcDbLine
10
936.580000000000
20
506.020000000000
30
0.0
11
939.750000000000
21
506.940000000000
31
0.0
0
LINE
5
a04
100
AcDbEntity
8
1-0
6
CONTINUOUS
62
7
100
AcDbLine
10
939.750000000000
20
506.940000000000
30
0.0
11
943.310000000000
21
507.700000000000
31
0.0
0
LINE
5
a05
100
AcDbEntity
8
1-0
6
CONTINUOUS
62
7
100
AcDbLine
10
943.310000000000
20
507.700000000000
30
0.0
11
947.020000000000
21
508.140000000000
31
0.0
0
LINE
5
a06
100
AcDbEntity
8
1-0
6
CONTINUOUS
62
7
100
AcDbLine
10
947.020000000000
20
508.140000000000
30
0.0
11
949.580000000000
21
508.200000000000
31
0.0
0
LINE
5
a07
100
AcDbEntity
8
1-0
6
CONTINUOUS
62
7
100
AcDbLine
10
949.580000000000
20
508.200000000000
30
0.0
11
952.110000000000
21
508.080000000000
31
0.0
0
LINE
5
a08
100
AcDbEntity
8
1-0
6
CONTINUOUS
62
7
100
AcDbLine
10
952.110000000000
20
508.080000000000
30
0.0
11
955.690000000000
21
507.590000000000
31
0.0
0
LINE
5
a09
100
AcDbEntity
8
1-0
6
CONTINUOUS
62
7
100
AcDbLine
10
955.690000000000
20
507.590000000000
30
0.0
11
959.000000000000
21
506.860000000000
31
0.0
0
LINE
5
a0a
100
AcDbEntity
8
1-0
6
CONTINUOUS
62
7
100
AcDbLine
10
959.000000000000
20
506.860000000000
30
0.0
11
961.870000000000
21
506.070000000000
31
0.0
0
LINE
5
a0b
100
AcDbEntity
8
1-0
6
CONTINUOUS
62
7
100
AcDbLine
10
961.870000000000
20
506.070000000000
30
0.0
11
963.420000000000
21
505.610000000000
31
0.0
0
LINE
5
a0c
100
AcDbEntity
8
1-0
6
CONTINUOUS
62
7
100
AcDbLine
10
963.420000000000
20
505.610000000000
30
0.0
11
965.050000000000
21
505.120000000000
31
0.0
0
LINE
5
a0d
100
AcDbEntity
8
1-0
6
CONTINUOUS
62
7
100
AcDbLine
10
965.050000000000
20
505.120000000000
30
0.0
11
968.010000000000
21
504.160000000000
31
0.0
0
LINE
5
a0e
100
AcDbEntity
8
1-0
6
CONTINUOUS
62
7
100
AcDbLine
10
968.010000000000
20
504.160000000000
30
0.0
11
971.290000000000
21
502.930000000000
31
0.0
0
LINE
5
a0f
100
AcDbEntity
8
1-0
6
CONTINUOUS
62
7
100
AcDbLine
10
971.290000000000
20
502.930000000000
30
0.0
11
974.650000000000
21
501.340000000000
31
0.0
0
LINE
5
a10
100
AcDbEntity
8
1-0
6
CONTINUOUS
62
7
100
AcDbLine
10
974.650000000000
20
501.340000000000
30
0.0
11
976.950000000000
21
500.010000000000
31
0.0
0
LINE
5
a11
100
AcDbEntity
8
1-0
6
CONTINUOUS
62
7
100
AcDbLine
10
976.950000000000
20
500.010000000000
30
0.0
11
979.640000000000
21
498.130000000000
31
0.0
0
LINE
5
a12
100
AcDbEntity
8
1-0
6
CONTINUOUS
62
7
100
AcDbLine
10
979.640000000000
20
498.130000000000
30
0.0
11
983.250000000000
21
494.970000000000
31
0.0
0
LINE
5
a13
100
AcDbEntity
8
1-0
6
CONTINUOUS
62
7
100
AcDbLine
10
983.250000000000
20
494.970000000000
30
0.0
11
986.290000000000
21
491.740000000000
31
0.0
0
LINE
5
a14
100
AcDbEntity
8
1-0
6
CONTINUOUS
62
7
100
AcDbLine
10
986.290000000000
20
491.740000000000
30
0.0
11
988.820000000000
21
488.780000000000
31
0.0
0
LINE
5
a15
100
AcDbEntity
8
1-0
6
CONTINUOUS
62
7
100
AcDbLine
10
988.820000000000
20
488.780000000000
30
0.0
11
990.110000000000
21
487.230000000000
31
0.0
0
LINE
5
a16
100
AcDbEntity
8
1-0
6
CONTINUOUS
62
7
100
AcDbLine
10
990.110000000000
20
487.230000000000
30
0.0
11
991.170000000000
21
485.990000000000
31
0.0
0
LINE
5
a17
100
AcDbEntity
8
1-0
6
CONTINUOUS
62
7
100
AcDbLine
10
991.170000000000
20
485.990000000000
30
0.0
11
992.890000000000
21
484.100000000000
31
0.0
0
LINE
5
a18
100
AcDbEntity
8
1-0
6
CONTINUOUS
62
7
100
AcDbLine
10
992.890000000000
20
484.100000000000
30
0.0
11
994.310000000000
21
482.760000000000
31
0.0
0
LINE
5
a19
100
AcDbEntity
8
1-0
6
CONTINUOUS
62
7
100
AcDbLine
10
994.310000000000
20
482.760000000000
30
0.0
11
995.580000000000
21
481.810000000000
31
0.0
0
LINE
5
a1a
100
AcDbEntity
8
1-0
6
CONTINUOUS
62
7
100
AcDbLine
10
995.580000000000
20
481.810000000000
30
0.0
11
995.930000000000
21
481.600000000000
31
0.0
0
LINE
5
a1b
100
AcDbEntity
8
1-0
6
CONTINUOUS
62
7
100
AcDbLine
10
995.930000000000
20
481.600000000000
30
0.0
11
996.120000000000
21
481.510000000000
31
0.0
0
LINE
5
a1c
100
AcDbEntity
8
1-0
6
CONTINUOUS
62
7
100
AcDbLine
10
996.120000000000
20
481.510000000000
30
0.0
11
997.340000000000
21
481.060000000000
31
0.0
0
LINE
5
a1d
100
AcDbEntity
8
1-0
6
CONTINUOUS
62
7
100
AcDbLine
10
997.340000000000
20
481.060000000000
30
0.0
11
998.900000000000
21
480.630000000000
31
0.0
0
LINE
5
a1e
100
AcDbEntity
8
1-0
6
CONTINUOUS
62
7
100
AcDbLine
10
998.900000000000
20
480.630000000000
30
0.0
11
1000.920000000000
21
480.180000000000
31
0.0
0
LINE
5
a1f
100
AcDbEntity
8
1-0
6
CONTINUOUS
62
7
100
AcDbLine
10
1000.920000000000
20
480.180000000000
30
0.0
11
1002.220000000000
21
479.910000000000
31
0.0
0
LINE
5
a20
100
AcDbEntity
8
1-0
6
CONTINUOUS
62
7
100
AcDbLine
10
1002.220000000000
20
479.910000000000
30
0.0
11
1003.010000000000
21
479.750000000000
31
0.0
0
LINE
5
a21
100
AcDbEntity
8
1-0
6
CONTINUOUS
62
7
100
AcDbLine
10
1003.010000000000
20
479.750000000000
30
0.0
11
1004.060000000000
21
479.540000000000
31
0.0
0
LINE
5
a22
100
AcDbEntity
8
1-0
6
CONTINUOUS
62
7
100
AcDbLine
10
1004.060000000000
20
479.540000000000
30
0.0
11
1004.910000000000
21
479.360000000000
31
0.0
0
LINE
5
a23
100
AcDbEntity
8
1-0
6
CONTINUOUS
62
7
100
AcDbLine
10
1004.910000000000
20
479.360000000000
30
0.0
11
1005.740000000000
21
479.190000000000
31
0.0
0
LINE
5
a24
100
AcDbEntity
8
1-0
6
CONTINUOUS
62
7
100
AcDbLine
10
1042.420000000000
20
207.570000000000
30
0.0
11
1043.910000000000
21
208.290000000000
31
0.0
0
LINE
5
a25
100
AcDbEntity
8
1-0
6
CONTINUOUS
62
7
100
AcDbLine
10
1043.910000000000
20
208.290000000000
30
0.0
11
1046.460000000000
21
209.560000000000
31
0.0
0
LINE
5
a26
100
AcDbEntity
8
1-0
6
CONTINUOUS
62
7
100
AcDbLine
10
1046.460000000000
20
209.560000000000
30
0.0
11
1048.910000000000
21
210.960000000000
31
0.0
0
LINE
5
a27
100
AcDbEntity
8
1-0
6
CONTINUOUS
62
7
100
AcDbLine
10
1048.910000000000
20
210.960000000000
30
0.0
11
1051.190000000000
21
212.540000000000
31
0.0
0
LINE
5
a28
100
AcDbEntity
8
1-0
6
CONTINUOUS
62
7
100
AcDbLine
10
1051.190000000000
20
212.540000000000
30
0.0
11
1052.420000000000
21
213.570000000000
31
0.0
0
LINE
5
a29
100
AcDbEntity
8
1-0
6
CONTINUOUS
62
7
100
AcDbLine
10
1052.420000000000
20
213.570000000000
30
0.0
11
1053.930000000000
21
215.110000000000
31
0.0
0
LINE
5
a2a
100
AcDbEntity
8
1-0
6
CONTINUOUS
62
7
100
AcDbLine
10
1053.930000000000
20
215.110000000000
30
0.0
11
1056.290000000000
21
218.040000000000
31
0.0
0
LINE
5
a2b
100
AcDbEntity
8
1-0
6
CONTINUOUS
62
7
100
AcDbLine
10
1056.290000000000
20
218.040000000000
30
0.0
11
1058.540000000000
21
221.100000000000
31
0.0
0
LINE
5
a2c
100
AcDbEntity
8
1-0
6
CONTINUOUS
62
7
100
AcDbLine
10
1058.540000000000
20
221.100000000000
30
0.0
11
1060.900000000000
21
224.040000000000
31
0.0
0
LINE
5
a2d
100
AcDbEntity
8
1-0
6
CONTINUOUS
62
7
100
AcDbLine
10
1060.900000000000
20
224.040000000000
30
0.0
11
1062.420000000000
21
225.570000000000
31
0.0
0
LINE
5
a2e
100
AcDbEntity
8
1-0
6
CONTINUOUS
62
7
100
AcDbLine
10
1062.420000000000
20
225.570000000000
30
0.0
11
1063.640000000000
21
226.610000000000
31
0.0
0
LINE
5
a2f
100
AcDbEntity
8
1-0
6
CONTINUOUS
62
7
100
AcDbLine
10
1063.640000000000
20
226.610000000000
30
0.0
11
1065.930000000000
21
228.190000000000
31
0.0
0
LINE
5
a30
100
AcDbEntity
8
1-0
6
CONTINUOUS
62
7
100
AcDbLine
10
1065.930000000000
20
228.190000000000
30
0.0
11
1068.380000000000
21
229.590000000000
31
0.0
0
LINE
5
a31
100
AcDbEntity
8
1-0
6
CONTINUOUS
62
7
100
AcDbLine
10
1068.380000000000
20
229.590000000000
30
0.0
11
1070.930000000000
21
230.860000000000
31
0.0
0
LINE
5
a32
100
AcDbEntity
8
1-0
6
CONTINUOUS
62
7
100
AcDbLine
10
1070.930000000000
20
230.860000000000
30
0.0
11
1072.420000000000
21
231.570000000000
31
0.0
0
LINE
5
a33
100
AcDbEntity
8
1-0
6
CONTINUOUS
62
7
100
AcDbLine
10
1072.420000000000
20
231.570000000000
30
0.0
11
1073.790000000000
21
232.230000000000
31
0.0
0
LINE
5
a34
100
AcDbEntity
8
1-0
6
CONTINUOUS
62
7
100
AcDbLine
10
1073.790000000000
20
232.230000000000
30
0.0
11
1076.160000000000
21
233.320000000000
31
0.0
0
LINE
5
a35
100
AcDbEntity
8
1-0
6
CONTINUOUS
62
7
100
AcDbLine
10
1076.160000000000
20
233.320000000000
30
0.0
11
1078.550000000000
21
234.320000000000
31
0.0
0
LINE
5
a36
100
AcDbEntity
8
1-0
6
CONTINUOUS
62
7
100
AcDbLine
10
1078.550000000000
20
234.320000000000
30
0.0
11
1080.980000000000
21
235.170000000000
31
0.0
0
LINE
5
a37
100
AcDbEntity
8
1-0
6
CONTINUOUS
62
7
100
AcDbLine
10
1080.980000000000
20
235.170000000000
30
0.0
11
1082.420000000000
21
235.570000000000
31
0.0
0
LINE
5
a38
100
AcDbEntity
8
1-0
6
CONTINUOUS
62
7
100
AcDbLine
10
1082.420000000000
20
235.570000000000
30
0.0
11
1083.780000000000
21
235.880000000000
31
0.0
0
LINE
5
a39
100
AcDbEntity
8
1-0
6
CONTINUOUS
62
7
100
AcDbLine
10
1083.780000000000
20
235.880000000000
30
0.0
11
1086.160000000000
21
236.270000000000
31
0.0
0
LINE
5
a3a
100
AcDbEntity
8
1-0
6
CONTINUOUS
62
7
100
AcDbLine
10
1086.160000000000
20
236.270000000000
30
0.0
11
1088.570000000000
21
236.490000000000
31
0.0
0
LINE
5
a3b
100
AcDbEntity
8
1-0
6
CONTINUOUS
62
7
100
AcDbLine
10
1088.570000000000
20
236.490000000000
30
0.0
11
1091.010000000000
21
236.580000000000
31
0.0
0
LINE
5
a3c
100
AcDbEntity
8
1-0
6
CONTINUOUS
62
7
100
AcDbLine
10
1091.010000000000
20
236.580000000000
30
0.0
11
1092.420000000000
21
236.570000000000
31
0.0
0
LINE
5
a3d
100
AcDbEntity
8
1-0
6
CONTINUOUS
62
7
100
AcDbLine
10
1092.420000000000
20
236.570000000000
30
0.0
11
1093.820000000000
21
236.540000000000
31
0.0
0
LINE
5
a3e
100
AcDbEntity
8
1-0
6
CONTINUOUS
62
7
100
AcDbLine
10
1093.820000000000
20
236.540000000000
30
0.0
11
1096.240000000000
21
236.390000000000
31
0.0
0
LINE
5
a3f
100
AcDbEntity
8
1-0
6
CONTINUOUS
62
7
100
AcDbLine
10
1096.240000000000
20
236.390000000000
30
0.0
11
1098.640000000000
21
236.150000000000
31
0.0
0
LINE
5
a40
100
AcDbEntity
8
1-0
6
CONTINUOUS
62
7
100
AcDbLine
10
1098.640000000000
20
236.150000000000
30
0.0
11
1101.030000000000
21
235.820000000000
31
0.0
0
LINE
5
a41
100
AcDbEntity
8
1-0
6
CONTINUOUS
62
7
100
AcDbLine
10
1101.030000000000
20
235.820000000000
30
0.0
11
1102.420000000000
21
235.570000000000
31
0.0
0
LINE
5
a42
100
AcDbEntity
8
1-0
6
CONTINUOUS
62
7
100
AcDbLine
10
1102.420000000000
20
235.570000000000
30
0.0
11
1103.850000000000
21
235.290000000000
31
0.0
0
LINE
5
a43
100
AcDbEntity
8
1-0
6
CONTINUOUS
62
7
100
AcDbLine
10
1103.850000000000
20
235.290000000000
30
0.0
11
1106.300000000000
21
234.700000000000
31
0.0
0
LINE
5
a44
100
AcDbEntity
8
1-0
6
CONTINUOUS
62
7
100
AcDbLine
10
1106.300000000000
20
234.700000000000
30
0.0
11
1108.710000000000
21
233.990000000000
31
0.0
0
LINE
5
a45
100
AcDbEntity
8
1-0
6
CONTINUOUS
62
7
100
AcDbLine
10
1108.710000000000
20
233.990000000000
30
0.0
11
1111.070000000000
21
233.130000000000
31
0.0
0
LINE
5
a46
100
AcDbEntity
8
1-0
6
CONTINUOUS
62
7
100
AcDbLine
10
1111.070000000000
20
233.130000000000
30
0.0
11
1112.420000000000
21
232.570000000000
31
0.0
0
LINE
5
a47
100
AcDbEntity
8
1-0
6
CONTINUOUS
62
7
100
AcDbLine
10
1112.420000000000
20
232.570000000000
30
0.0
11
1113.890000000000
21
231.890000000000
31
0.0
0
LINE
5
a48
100
AcDbEntity
8
1-0
6
CONTINUOUS
62
7
100
AcDbLine
10
1113.890000000000
20
231.890000000000
30
0.0
11
1116.360000000000
21
230.560000000000
31
0.0
0
LINE
5
a49
100
AcDbEntity
8
1-0
6
CONTINUOUS
62
7
100
AcDbLine
10
1116.360000000000
20
230.560000000000
30
0.0
11
1118.760000000000
21
229.100000000000
31
0.0
0
LINE
5
a4a
100
AcDbEntity
8
1-0
6
CONTINUOUS
62
7
100
AcDbLine
10
1118.760000000000
20
229.100000000000
30
0.0
11
1121.090000000000
21
227.530000000000
31
0.0
0
LINE
5
a4b
100
AcDbEntity
8
1-0
6
CONTINUOUS
62
7
100
AcDbLine
10
1121.090000000000
20
227.530000000000
30
0.0
11
1122.420000000000
21
226.570000000000
31
0.0
0
LINE
5
a4c
100
AcDbEntity
8
1-0
6
CONTINUOUS
62
7
100
AcDbLine
10
1122.420000000000
20
226.570000000000
30
0.0
11
1123.850000000000
21
225.500000000000
31
0.0
0
LINE
5
a4d
100
AcDbEntity
8
1-0
6
CONTINUOUS
62
7
100
AcDbLine
10
1123.850000000000
20
225.500000000000
30
0.0
11
1126.280000000000
21
223.610000000000
31
0.0
0
LINE
5
a4e
100
AcDbEntity
8
1-0
6
CONTINUOUS
62
7
100
AcDbLine
10
1126.280000000000
20
223.610000000000
30
0.0
11
1128.680000000000
21
221.680000000000
31
0.0
0
LINE
5
a4f
100
AcDbEntity
8
1-0
6
CONTINUOUS
62
7
100
AcDbLine
10
1128.680000000000
20
221.680000000000
30
0.0
11
1131.050000000000
21
219.720000000000
31
0.0
0
LINE
5
a50
100
AcDbEntity
8
1-0
6
CONTINUOUS
62
7
100
AcDbLine
10
1131.050000000000
20
219.720000000000
30
0.0
11
1132.420000000000
21
218.570000000000
31
0.0
0
LINE
5
a51
100
AcDbEntity
8
1-0
6
CONTINUOUS
62
7
100
AcDbLine
10
895.780000000000
20
206.570000000000
30
0.0
11
896.210000000000
21
206.590000000000
31
0.0
0
LINE
5
a52
100
AcDbEntity
8
1-0
6
CONTINUOUS
62
7
100
AcDbLine
10
896.210000000000
20
206.590000000000
30
0.0
11
896.940000000000
21
206.640000000000
31
0.0
0
LINE
5
a53
100
AcDbEntity
8
1-0
6
CONTINUOUS
62
7
100
AcDbLine
10
896.940000000000
20
206.640000000000
30
0.0
11
897.670000000000
21
206.690000000000
31
0.0
0
LINE
5
a54
100
AcDbEntity
8
1-0
6
CONTINUOUS
62
7
100
AcDbLine
10
897.670000000000
20
206.690000000000
30
0.0
11
898.400000000000
21
206.770000000000
31
0.0
0
LINE
5
a55
100
AcDbEntity
8
1-0
6
CONTINUOUS
62
7
100
AcDbLine
10
898.400000000000
20
206.770000000000
30
0.0
11
898.820000000000
21
206.820000000000
31
0.0
0
LINE
5
a56
100
AcDbEntity
8
1-0
6
CONTINUOUS
62
7
100
AcDbLine
10
898.820000000000
20
206.820000000000
30
0.0
11
899.210000000000
21
206.880000000000
31
0.0
0
LINE
5
a57
100
AcDbEntity
8
1-0
6
CONTINUOUS
62
7
100
AcDbLine
10
899.210000000000
20
206.880000000000
30
0.0
11
899.870000000000
21
207.000000000000
31
0.0
0
LINE
5
a58
100
AcDbEntity
8
1-0
6
CONTINUOUS
62
7
100
AcDbLine
10
899.870000000000
20
207.000000000000
30
0.0
11
900.530000000000
21
207.150000000000
31
0.0
0
LINE
5
a59
100
AcDbEntity
8
1-0
6
CONTINUOUS
62
7
100
AcDbLine
10
900.530000000000
20
207.150000000000
30
0.0
11
901.180000000000
21
207.330000000000
31
0.0
0
LINE
5
a5a
100
AcDbEntity
8
1-0
6
CONTINUOUS
62
7
100
AcDbLine
10
901.180000000000
20
207.330000000000
30
0.0
11
901.550000000000
21
207.460000000000
31
0.0
0
LINE
5
a5b
100
AcDbEntity
8
1-0
6
CONTINUOUS
62
7
100
AcDbLine
10
901.550000000000
20
207.460000000000
30
0.0
11
901.840000000000
21
207.560000000000
31
0.0
0
LINE
5
a5c
100
AcDbEntity
8
1-0
6
CONTINUOUS
62
7
100
AcDbLine
10
901.840000000000
20
207.560000000000
30
0.0
11
902.340000000000
21
207.760000000000
31
0.0
0
LINE
5
a5d
100
AcDbEntity
8
1-0
6
CONTINUOUS
62
7
100
AcDbLine
10
902.340000000000
20
207.760000000000
30
0.0
11
902.840000000000
21
207.980000000000
31
0.0
0
LINE
5
a5e
100
AcDbEntity
8
1-0
6
CONTINUOUS
62
7
100
AcDbLine
10
902.840000000000
20
207.980000000000
30
0.0
11
903.330000000000
21
208.210000000000
31
0.0
0
LINE
5
a5f
100
AcDbEntity
8
1-0
6
CONTINUOUS
62
7
100
AcDbLine
10
903.330000000000
20
208.210000000000
30
0.0
11
903.610000000000
21
208.340000000000
31
0.0
0
LINE
5
a60
100
AcDbEntity
8
1-0
6
CONTINUOUS
62
7
100
AcDbLine
10
903.620000000000
20
208.340000000000
30
0.0
11
904.620000000000
21
209.070000000000
31
0.0
0
LINE
5
a61
100
AcDbEntity
8
1-0
6
CONTINUOUS
62
7
100
AcDbLine
10
904.620000000000
20
209.070000000000
30
0.0
11
905.870000000000
21
210.270000000000
31
0.0
0
LINE
5
a62
100
AcDbEntity
8
1-0
6
CONTINUOUS
62
7
100
AcDbLine
10
905.870000000000
20
210.270000000000
30
0.0
11
907.510000000000
21
212.130000000000
31
0.0
0
LINE
5
a63
100
AcDbEntity
8
1-0
6
CONTINUOUS
62
7
100
AcDbLine
10
907.510000000000
20
212.130000000000
30
0.0
11
908.520000000000
21
213.360000000000
31
0.0
0
LINE
5
a64
100
AcDbEntity
8
1-0
6
CONTINUOUS
62
7
100
AcDbLine
10
908.520000000000
20
213.360000000000
30
0.0
11
909.810000000000
21
214.990000000000
31
0.0
0
LINE
5
a65
100
AcDbEntity
8
1-0
6
CONTINUOUS
62
7
100
AcDbLine
10
909.810000000000
20
214.990000000000
30
0.0
11
912.270000000000
21
218.040000000000
31
0.0
0
LINE
5
a66
100
AcDbEntity
8
1-0
6
CONTINUOUS
62
7
100
AcDbLine
10
912.270000000000
20
218.040000000000
30
0.0
11
915.140000000000
21
221.350000000000
31
0.0
0
LINE
5
a67
100
AcDbEntity
8
1-0
6
CONTINUOUS
62
7
100
AcDbLine
10
915.140000000000
20
221.350000000000
30
0.0
11
918.490000000000
21
224.630000000000
31
0.0
0
LINE
5
a68
100
AcDbEntity
8
1-0
6
CONTINUOUS
62
7
100
AcDbLine
10
918.490000000000
20
224.630000000000
30
0.0
11
920.920000000000
21
226.620000000000
31
0.0
0
LINE
5
a69
100
AcDbEntity
8
1-0
6
CONTINUOUS
62
7
100
AcDbLine
10
920.920000000000
20
226.620000000000
30
0.0
11
923.000000000000
21
228.100000000000
31
0.0
0
LINE
5
a6a
100
AcDbEntity
8
1-0
6
CONTINUOUS
62
7
100
AcDbLine
10
923.000000000000
20
228.100000000000
30
0.0
11
926.230000000000
21
230.050000000000
31
0.0
0
LINE
5
a6b
100
AcDbEntity
8
1-0
6
CONTINUOUS
62
7
100
AcDbLine
10
926.230000000000
20
230.050000000000
30
0.0
11
929.580000000000
21
231.710000000000
31
0.0
0
LINE
5
a6c
100
AcDbEntity
8
1-0
6
CONTINUOUS
62
7
100
AcDbLine
10
929.580000000000
20
231.710000000000
30
0.0
11
932.800000000000
21
233.060000000000
31
0.0
0
LINE
5
a6d
100
AcDbEntity
8
1-0
6
CONTINUOUS
62
7
100
AcDbLine
10
932.800000000000
20
233.060000000000
30
0.0
11
934.750000000000
21
233.770000000000
31
0.0
0
LINE
5
a6e
100
AcDbEntity
8
1-0
6
CONTINUOUS
62
7
100
AcDbLine
10
934.750000000000
20
233.770000000000
30
0.0
11
936.580000000000
21
234.390000000000
31
0.0
0
LINE
5
a6f
100
AcDbEntity
8
1-0
6
CONTINUOUS
62
7
100
AcDbLine
10
936.580000000000
20
234.390000000000
30
0.0
11
939.750000000000
21
235.320000000000
31
0.0
0
LINE
5
a70
100
AcDbEntity
8
1-0
6
CONTINUOUS
62
7
100
AcDbLine
10
939.750000000000
20
235.320000000000
30
0.0
11
943.310000000000
21
236.080000000000
31
0.0
0
LINE
5
a71
100
AcDbEntity
8
1-0
6
CONTINUOUS
62
7
100
AcDbLine
10
943.310000000000
20
236.080000000000
30
0.0
11
947.020000000000
21
236.520000000000
31
0.0
0
LINE
5
a72
100
AcDbEntity
8
1-0
6
CONTINUOUS
62
7
100
AcDbLine
10
947.020000000000
20
236.520000000000
30
0.0
11
949.580000000000
21
236.580000000000
31
0.0
0
LINE
5
a73
100
AcDbEntity
8
1-0
6
CONTINUOUS
62
7
100
AcDbLine
10
949.580000000000
20
236.580000000000
30
0.0
11
952.110000000000
21
236.460000000000
31
0.0
0
LINE
5
a74
100
AcDbEntity
8
1-0
6
CONTINUOUS
62
7
100
AcDbLine
10
952.110000000000
20
236.460000000000
30
0.0
11
955.690000000000
21
235.970000000000
31
0.0
0
LINE
5
a75
100
AcDbEntity
8
1-0
6
CONTINUOUS
62
7
100
AcDbLine
10
955.690000000000
20
235.970000000000
30
0.0
11
959.000000000000
21
235.240000000000
31
0.0
0
LINE
5
a76
100
AcDbEntity
8
1-0
6
CONTINUOUS
62
7
100
AcDbLine
10
959.000000000000
20
235.240000000000
30
0.0
11
961.870000000000
21
234.450000000000
31
0.0
0
LINE
5
a77
100
AcDbEntity
8
1-0
6
CONTINUOUS
62
7
100
AcDbLine
10
961.870000000000
20
234.450000000000
30
0.0
11
963.420000000000
21
233.990000000000
31
0.0
0
LINE
5
a78
100
AcDbEntity
8
1-0
6
CONTINUOUS
62
7
100
AcDbLine
10
963.420000000000
20
233.990000000000
30
0.0
11
965.050000000000
21
233.500000000000
31
0.0
0
LINE
5
a79
100
AcDbEntity
8
1-0
6
CONTINUOUS
62
7
100
AcDbLine
10
965.050000000000
20
233.500000000000
30
0.0
11
968.010000000000
21
232.540000000000
31
0.0
0
LINE
5
a7a
100
AcDbEntity
8
1-0
6
CONTINUOUS
62
7
100
AcDbLine
10
968.010000000000
20
232.540000000000
30
0.0
11
971.290000000000
21
231.310000000000
31
0.0
0
LINE
5
a7b
100
AcDbEntity
8
1-0
6
CONTINUOUS
62
7
100
AcDbLine
10
971.290000000000
20
231.310000000000
30
0.0
11
974.650000000000
21
229.720000000000
31
0.0
0
LINE
5
a7c
100
AcDbEntity
8
1-0
6
CONTINUOUS
62
7
100
AcDbLine
10
974.650000000000
20
229.720000000000
30
0.0
11
976.950000000000
21
228.390000000000
31
0.0
0
LINE
5
a7d
100
AcDbEntity
8
1-0
6
CONTINUOUS
62
7
100
AcDbLine
10
976.950000000000
20
228.390000000000
30
0.0
11
979.640000000000
21
226.510000000000
31
0.0
0
LINE
5
a7e
100
AcDbEntity
8
1-0
6
CONTINUOUS
62
7
100
AcDbLine
10
979.640000000000
20
226.510000000000
30
0.0
11
983.250000000000
21
223.350000000000
31
0.0
0
LINE
5
a7f
100
AcDbEntity
8
1-0
6
CONTINUOUS
62
7
100
AcDbLine
10
983.250000000000
20
223.350000000000
30
0.0
11
986.290000000000
21
220.120000000000
31
0.0
0
LINE
5
a80
100
AcDbEntity
8
1-0
6
CONTINUOUS
62
7
100
AcDbLine
10
986.290000000000
20
220.120000000000
30
0.0
11
988.820000000000
21
217.160000000000
31
0.0
0
LINE
5
a81
100
AcDbEntity
8
1-0
6
CONTINUOUS
62
7
100
AcDbLine
10
988.820000000000
20
217.160000000000
30
0.0
11
990.110000000000
21
215.600000000000
31
0.0
0
LINE
5
a82
100
AcDbEntity
8
1-0
6
CONTINUOUS
62
7
100
AcDbLine
10
990.110000000000
20
215.600000000000
30
0.0
11
991.170000000000
21
214.370000000000
31
0.0
0
LINE
5
a83
100
AcDbEntity
8
1-0
6
CONTINUOUS
62
7
100
AcDbLine
10
991.170000000000
20
214.370000000000
30
0.0
11
992.890000000000
21
212.480000000000
31
0.0
0
LINE
5
a84
100
AcDbEntity
8
1-0
6
CONTINUOUS
62
7
100
AcDbLine
10
992.890000000000
20
212.480000000000
30
0.0
11
994.310000000000
21
211.140000000000
31
0.0
0
LINE
5
a85
100
AcDbEntity
8
1-0
6
CONTINUOUS
62
7
100
AcDbLine
10
994.310000000000
20
211.140000000000
30
0.0
11
995.580000000000
21
210.190000000000
31
0.0
0
LINE
5
a86
100
AcDbEntity
8
1-0
6
CONTINUOUS
62
7
100
AcDbLine
10
995.580000000000
20
210.190000000000
30
0.0
11
995.930000000000
21
209.980000000000
31
0.0
0
LINE
5
a87
100
AcDbEntity
8
1-0
6
CONTINUOUS
62
7
100
AcDbLine
10
995.930000000000
20
209.980000000000
30
0.0
11
996.120000000000
21
209.890000000000
31
0.0
0
LINE
5
a88
100
AcDbEntity
8
1-0
6
CONTINUOUS
62
7
100
AcDbLine
10
996.120000000000
20
209.890000000000
30
0.0
11
997.340000000000
21
209.440000000000
31
0.0
0
LINE
5
a89
100
AcDbEntity
8
1-0
6
CONTINUOUS
62
7
100
AcDbLine
10
997.340000000000
20
209.440000000000
30
0.0
11
998.900000000000
21
209.010000000000
31
0.0
0
LINE
5
a8a
100
AcDbEntity
8
1-0
6
CONTINUOUS
62
7
100
AcDbLine
10
998.900000000000
20
209.010000000000
30
0.0
11
1000.920000000000
21
208.560000000000
31
0.0
0
LINE
5
a8b
100
AcDbEntity
8
1-0
6
CONTINUOUS
62
7
100
AcDbLine
10
1000.920000000000
20
208.560000000000
30
0.0
11
1002.220000000000
21
208.290000000000
31
0.0
0
LINE
5
a8c
100
AcDbEntity
8
1-0
6
CONTINUOUS
62
7
100
AcDbLine
10
1002.220000000000
20
208.290000000000
30
0.0
11
1003.010000000000
21
208.130000000000
31
0.0
0
LINE
5
a8d
100
AcDbEntity
8
1-0
6
CONTINUOUS
62
7
100
AcDbLine
10
1003.010000000000
20
208.130000000000
30
0.0
11
1004.060000000000
21
207.910000000000
31
0.0
0
LINE
5
a8e
100
AcDbEntity
8
1-0
6
CONTINUOUS
62
7
100
AcDbLine
10
1004.060000000000
20
207.910000000000
30
0.0
11
1004.910000000000
21
207.740000000000
31
0.0
0
LINE
5
a8f
100
AcDbEntity
8
1-0
6
CONTINUOUS
62
7
100
AcDbLine
10
1004.910000000000
20
207.740000000000
30
0.0
11
1005.740000000000
21
207.570000000000
31
0.0
0
LINE
5
a90
100
AcDbEntity
8
1-0
6
CONTINUOUS
62
7
100
AcDbLine
10
895.780000000000
20
191.570000000000
30
0.0
11
896.210000000000
21
191.590000000000
31
0.0
0
LINE
5
a91
100
AcDbEntity
8
1-0
6
CONTINUOUS
62
7
100
AcDbLine
10
896.210000000000
20
191.590000000000
30
0.0
11
896.940000000000
21
191.640000000000
31
0.0
0
LINE
5
a92
100
AcDbEntity
8
1-0
6
CONTINUOUS
62
7
100
AcDbLine
10
896.940000000000
20
191.640000000000
30
0.0
11
897.670000000000
21
191.690000000000
31
0.0
0
LINE
5
a93
100
AcDbEntity
8
1-0
6
CONTINUOUS
62
7
100
AcDbLine
10
897.670000000000
20
191.690000000000
30
0.0
11
898.400000000000
21
191.770000000000
31
0.0
0
LINE
5
a94
100
AcDbEntity
8
1-0
6
CONTINUOUS
62
7
100
AcDbLine
10
898.400000000000
20
191.770000000000
30
0.0
11
898.820000000000
21
191.820000000000
31
0.0
0
LINE
5
a95
100
AcDbEntity
8
1-0
6
CONTINUOUS
62
7
100
AcDbLine
10
898.820000000000
20
191.820000000000
30
0.0
11
899.210000000000
21
191.880000000000
31
0.0
0
LINE
5
a96
100
AcDbEntity
8
1-0
6
CONTINUOUS
62
7
100
AcDbLine
10
899.210000000000
20
191.880000000000
30
0.0
11
899.870000000000
21
192.000000000000
31
0.0
0
LINE
5
a97
100
AcDbEntity
8
1-0
6
CONTINUOUS
62
7
100
AcDbLine
10
899.870000000000
20
192.000000000000
30
0.0
11
900.530000000000
21
192.150000000000
31
0.0
0
LINE
5
a98
100
AcDbEntity
8
1-0
6
CONTINUOUS
62
7
100
AcDbLine
10
900.530000000000
20
192.150000000000
30
0.0
11
901.180000000000
21
192.330000000000
31
0.0
0
LINE
5
a99
100
AcDbEntity
8
1-0
6
CONTINUOUS
62
7
100
AcDbLine
10
901.180000000000
20
192.330000000000
30
0.0
11
901.550000000000
21
192.460000000000
31
0.0
0
LINE
5
a9a
100
AcDbEntity
8
1-0
6
CONTINUOUS
62
7
100
AcDbLine
10
901.550000000000
20
192.460000000000
30
0.0
11
901.840000000000
21
192.560000000000
31
0.0
0
LINE
5
a9b
100
AcDbEntity
8
1-0
6
CONTINUOUS
62
7
100
AcDbLine
10
901.840000000000
20
192.560000000000
30
0.0
11
902.340000000000
21
192.760000000000
31
0.0
0
LINE
5
a9c
100
AcDbEntity
8
1-0
6
CONTINUOUS
62
7
100
AcDbLine
10
902.340000000000
20
192.760000000000
30
0.0
11
902.840000000000
21
192.980000000000
31
0.0
0
LINE
5
a9d
100
AcDbEntity
8
1-0
6
CONTINUOUS
62
7
100
AcDbLine
10
902.840000000000
20
192.980000000000
30
0.0
11
903.330000000000
21
193.210000000000
31
0.0
0
LINE
5
a9e
100
AcDbEntity
8
1-0
6
CONTINUOUS
62
7
100
AcDbLine
10
903.330000000000
20
193.210000000000
30
0.0
11
903.610000000000
21
193.340000000000
31
0.0
0
LINE
5
a9f
100
AcDbEntity
8
1-0
6
CONTINUOUS
62
7
100
AcDbLine
10
903.620000000000
20
193.340000000000
30
0.0
11
904.620000000000
21
194.070000000000
31
0.0
0
LINE
5
aa0
100
AcDbEntity
8
1-0
6
CONTINUOUS
62
7
100
AcDbLine
10
904.620000000000
20
194.070000000000
30
0.0
11
905.870000000000
21
195.270000000000
31
0.0
0
LINE
5
aa1
100
AcDbEntity
8
1-0
6
CONTINUOUS
62
7
100
AcDbLine
10
905.870000000000
20
195.270000000000
30
0.0
11
907.510000000000
21
197.130000000000
31
0.0
0
LINE
5
aa2
100
AcDbEntity
8
1-0
6
CONTINUOUS
62
7
100
AcDbLine
10
907.510000000000
20
197.130000000000
30
0.0
11
908.520000000000
21
198.360000000000
31
0.0
0
LINE
5
aa3
100
AcDbEntity
8
1-0
6
CONTINUOUS
62
7
100
AcDbLine
10
908.520000000000
20
198.360000000000
30
0.0
11
909.810000000000
21
199.990000000000
31
0.0
0
LINE
5
aa4
100
AcDbEntity
8
1-0
6
CONTINUOUS
62
7
100
AcDbLine
10
909.810000000000
20
199.990000000000
30
0.0
11
912.270000000000
21
203.040000000000
31
0.0
0
LINE
5
aa5
100
AcDbEntity
8
1-0
6
CONTINUOUS
62
7
100
AcDbLine
10
912.270000000000
20
203.040000000000
30
0.0
11
915.140000000000
21
206.350000000000
31
0.0
0
LINE
5
aa6
100
AcDbEntity
8
1-0
6
CONTINUOUS
62
7
100
AcDbLine
10
915.140000000000
20
206.350000000000
30
0.0
11
918.490000000000
21
209.630000000000
31
0.0
0
LINE
5
aa7
100
AcDbEntity
8
1-0
6
CONTINUOUS
62
7
100
AcDbLine
10
918.490000000000
20
209.630000000000
30
0.0
11
920.920000000000
21
211.620000000000
31
0.0
0
LINE
5
aa8
100
AcDbEntity
8
1-0
6
CONTINUOUS
62
7
100
AcDbLine
10
920.920000000000
20
211.620000000000
30
0.0
11
923.000000000000
21
213.100000000000
31
0.0
0
LINE
5
aa9
100
AcDbEntity
8
1-0
6
CONTINUOUS
62
7
100
AcDbLine
10
923.000000000000
20
213.100000000000
30
0.0
11
926.230000000000
21
215.050000000000
31
0.0
0
LINE
5
aaa
100
AcDbEntity
8
1-0
6
CONTINUOUS
62
7
100
AcDbLine
10
926.230000000000
20
215.050000000000
30
0.0
11
929.580000000000
21
216.710000000000
31
0.0
0
LINE
5
aab
100
AcDbEntity
8
1-0
6
CONTINUOUS
62
7
100
AcDbLine
10
929.580000000000
20
216.710000000000
30
0.0
11
932.800000000000
21
218.060000000000
31
0.0
0
LINE
5
aac
100
AcDbEntity
8
1-0
6
CONTINUOUS
62
7
100
AcDbLine
10
932.800000000000
20
218.060000000000
30
0.0
11
934.750000000000
21
218.770000000000
31
0.0
0
LINE
5
aad
100
AcDbEntity
8
1-0
6
CONTINUOUS
62
7
100
AcDbLine
10
934.750000000000
20
218.770000000000
30
0.0
11
936.580000000000
21
219.390000000000
31
0.0
0
LINE
5
aae
100
AcDbEntity
8
1-0
6
CONTINUOUS
62
7
100
AcDbLine
10
936.580000000000
20
219.390000000000
30
0.0
11
939.750000000000
21
220.320000000000
31
0.0
0
LINE
5
aaf
100
AcDbEntity
8
1-0
6
CONTINUOUS
62
7
100
AcDbLine
10
939.750000000000
20
220.320000000000
30
0.0
11
943.310000000000
21
221.080000000000
31
0.0
0
LINE
5
ab0
100
AcDbEntity
8
1-0
6
CONTINUOUS
62
7
100
AcDbLine
10
943.310000000000
20
221.080000000000
30
0.0
11
947.020000000000
21
221.520000000000
31
0.0
0
LINE
5
ab1
100
AcDbEntity
8
1-0
6
CONTINUOUS
62
7
100
AcDbLine
10
947.020000000000
20
221.520000000000
30
0.0
11
949.580000000000
21
221.580000000000
31
0.0
0
LINE
5
ab2
100
AcDbEntity
8
1-0
6
CONTINUOUS
62
7
100
AcDbLine
10
949.580000000000
20
221.580000000000
30
0.0
11
952.110000000000
21
221.460000000000
31
0.0
0
LINE
5
ab3
100
AcDbEntity
8
1-0
6
CONTINUOUS
62
7
100
AcDbLine
10
952.110000000000
20
221.460000000000
30
0.0
11
955.690000000000
21
220.970000000000
31
0.0
0
LINE
5
ab4
100
AcDbEntity
8
1-0
6
CONTINUOUS
62
7
100
AcDbLine
10
955.690000000000
20
220.970000000000
30
0.0
11
959.000000000000
21
220.240000000000
31
0.0
0
LINE
5
ab5
100
AcDbEntity
8
1-0
6
CONTINUOUS
62
7
100
AcDbLine
10
959.000000000000
20
220.240000000000
30
0.0
11
961.870000000000
21
219.450000000000
31
0.0
0
LINE
5
ab6
100
AcDbEntity
8
1-0
6
CONTINUOUS
62
7
100
AcDbLine
10
961.870000000000
20
219.450000000000
30
0.0
11
963.420000000000
21
218.990000000000
31
0.0
0
LINE
5
ab7
100
AcDbEntity
8
1-0
6
CONTINUOUS
62
7
100
AcDbLine
10
963.420000000000
20
218.990000000000
30
0.0
11
965.050000000000
21
218.500000000000
31
0.0
0
LINE
5
ab8
100
AcDbEntity
8
1-0
6
CONTINUOUS
62
7
100
AcDbLine
10
965.050000000000
20
218.500000000000
30
0.0
11
968.010000000000
21
217.540000000000
31
0.0
0
LINE
5
ab9
100
AcDbEntity
8
1-0
6
CONTINUOUS
62
7
100
AcDbLine
10
968.010000000000
20
217.540000000000
30
0.0
11
971.290000000000
21
216.310000000000
31
0.0
0
LINE
5
aba
100
AcDbEntity
8
1-0
6
CONTINUOUS
62
7
100
AcDbLine
10
971.290000000000
20
216.310000000000
30
0.0
11
974.650000000000
21
214.720000000000
31
0.0
0
LINE
5
abb
100
AcDbEntity
8
1-0
6
CONTINUOUS
62
7
100
AcDbLine
10
974.650000000000
20
214.720000000000
30
0.0
11
976.950000000000
21
213.390000000000
31
0.0
0
LINE
5
abc
100
AcDbEntity
8
1-0
6
CONTINUOUS
62
7
100
AcDbLine
10
976.950000000000
20
213.390000000000
30
0.0
11
979.640000000000
21
211.510000000000
31
0.0
0
LINE
5
abd
100
AcDbEntity
8
1-0
6
CONTINUOUS
62
7
100
AcDbLine
10
979.640000000000
20
211.510000000000
30
0.0
11
983.250000000000
21
208.350000000000
31
0.0
0
LINE
5
abe
100
AcDbEntity
8
1-0
6
CONTINUOUS
62
7
100
AcDbLine
10
983.250000000000
20
208.350000000000
30
0.0
11
986.290000000000
21
205.120000000000
31
0.0
0
LINE
5
abf
100
AcDbEntity
8
1-0
6
CONTINUOUS
62
7
100
AcDbLine
10
986.290000000000
20
205.120000000000
30
0.0
11
988.820000000000
21
202.160000000000
31
0.0
0
LINE
5
ac0
100
AcDbEntity
8
1-0
6
CONTINUOUS
62
7
100
AcDbLine
10
988.820000000000
20
202.160000000000
30
0.0
11
990.110000000000
21
200.600000000000
31
0.0
0
LINE
5
ac1
100
AcDbEntity
8
1-0
6
CONTINUOUS
62
7
100
AcDbLine
10
990.110000000000
20
200.600000000000
30
0.0
11
991.170000000000
21
199.370000000000
31
0.0
0
LINE
5
ac2
100
AcDbEntity
8
1-0
6
CONTINUOUS
62
7
100
AcDbLine
10
991.170000000000
20
199.370000000000
30
0.0
11
992.890000000000
21
197.480000000000
31
0.0
0
LINE
5
ac3
100
AcDbEntity
8
1-0
6
CONTINUOUS
62
7
100
AcDbLine
10
992.890000000000
20
197.480000000000
30
0.0
11
994.310000000000
21
196.140000000000
31
0.0
0
LINE
5
ac4
100
AcDbEntity
8
1-0
6
CONTINUOUS
62
7
100
AcDbLine
10
994.310000000000
20
196.140000000000
30
0.0
11
995.580000000000
21
195.190000000000
31
0.0
0
LINE
5
ac5
100
AcDbEntity
8
1-0
6
CONTINUOUS
62
7
100
AcDbLine
10
995.580000000000
20
195.190000000000
30
0.0
11
995.930000000000
21
194.980000000000
31
0.0
0
LINE
5
ac6
100
AcDbEntity
8
1-0
6
CONTINUOUS
62
7
100
AcDbLine
10
995.930000000000
20
194.980000000000
30
0.0
11
996.120000000000
21
194.890000000000
31
0.0
0
LINE
5
ac7
100
AcDbEntity
8
1-0
6
CONTINUOUS
62
7
100
AcDbLine
10
996.120000000000
20
194.890000000000
30
0.0
11
997.340000000000
21
194.440000000000
31
0.0
0
LINE
5
ac8
100
AcDbEntity
8
1-0
6
CONTINUOUS
62
7
100
AcDbLine
10
997.340000000000
20
194.440000000000
30
0.0
11
998.900000000000
21
194.010000000000
31
0.0
0
LINE
5
ac9
100
AcDbEntity
8
1-0
6
CONTINUOUS
62
7
100
AcDbLine
10
998.900000000000
20
194.010000000000
30
0.0
11
1000.920000000000
21
193.560000000000
31
0.0
0
LINE
5
aca
100
AcDbEntity
8
1-0
6
CONTINUOUS
62
7
100
AcDbLine
10
1000.920000000000
20
193.560000000000
30
0.0
11
1002.220000000000
21
193.290000000000
31
0.0
0
LINE
5
acb
100
AcDbEntity
8
1-0
6
CONTINUOUS
62
7
100
AcDbLine
10
1002.220000000000
20
193.290000000000
30
0.0
11
1003.010000000000
21
193.130000000000
31
0.0
0
LINE
5
acc
100
AcDbEntity
8
1-0
6
CONTINUOUS
62
7
100
AcDbLine
10
1003.010000000000
20
193.130000000000
30
0.0
11
1004.060000000000
21
192.910000000000
31
0.0
0
LINE
5
acd
100
AcDbEntity
8
1-0
6
CONTINUOUS
62
7
100
AcDbLine
10
1004.060000000000
20
192.910000000000
30
0.0
11
1004.910000000000
21
192.740000000000
31
0.0
0
LINE
5
ace
100
AcDbEntity
8
1-0
6
CONTINUOUS
62
7
100
AcDbLine
10
1004.910000000000
20
192.740000000000
30
0.0
11
1005.740000000000
21
192.570000000000
31
0.0
0
LINE
5
acf
100
AcDbEntity
8
1-0
6
CONTINUOUS
62
7
100
AcDbLine
10
896.290000000000
20
182.580000000000
30
0.0
11
896.740000000000
21
182.610000000000
31
0.0
0
LINE
5
ad0
100
AcDbEntity
8
1-0
6
CONTINUOUS
62
7
100
AcDbLine
10
896.740000000000
20
182.610000000000
30
0.0
11
897.560000000000
21
182.660000000000
31
0.0
0
LINE
5
ad1
100
AcDbEntity
8
1-0
6
CONTINUOUS
62
7
100
AcDbLine
10
897.560000000000
20
182.660000000000
30
0.0
11
898.470000000000
21
182.730000000000
31
0.0
0
LINE
5
ad2
100
AcDbEntity
8
1-0
6
CONTINUOUS
62
7
100
AcDbLine
10
898.470000000000
20
182.730000000000
30
0.0
11
899.420000000000
21
182.820000000000
31
0.0
0
LINE
5
ad3
100
AcDbEntity
8
1-0
6
CONTINUOUS
62
7
100
AcDbLine
10
899.420000000000
20
182.820000000000
30
0.0
11
900.050000000000
21
182.900000000000
31
0.0
0
LINE
5
ad4
100
AcDbEntity
8
1-0
6
CONTINUOUS
62
7
100
AcDbLine
10
900.050000000000
20
182.900000000000
30
0.0
11
900.680000000000
21
183.000000000000
31
0.0
0
LINE
5
ad5
100
AcDbEntity
8
1-0
6
CONTINUOUS
62
7
100
AcDbLine
10
900.680000000000
20
183.000000000000
30
0.0
11
901.680000000000
21
183.180000000000
31
0.0
0
LINE
5
ad6
100
AcDbEntity
8
1-0
6
CONTINUOUS
62
7
100
AcDbLine
10
901.680000000000
20
183.180000000000
30
0.0
11
902.760000000000
21
183.430000000000
31
0.0
0
LINE
5
ad7
100
AcDbEntity
8
1-0
6
CONTINUOUS
62
7
100
AcDbLine
10
902.760000000000
20
183.430000000000
30
0.0
11
903.820000000000
21
183.730000000000
31
0.0
0
LINE
5
ad8
100
AcDbEntity
8
1-0
6
CONTINUOUS
62
7
100
AcDbLine
10
903.820000000000
20
183.730000000000
30
0.0
11
904.510000000000
21
183.960000000000
31
0.0
0
LINE
5
ad9
100
AcDbEntity
8
1-0
6
CONTINUOUS
62
7
100
AcDbLine
10
904.510000000000
20
183.960000000000
30
0.0
11
905.070000000000
21
184.160000000000
31
0.0
0
LINE
5
ada
100
AcDbEntity
8
1-0
6
CONTINUOUS
62
7
100
AcDbLine
10
905.070000000000
20
184.160000000000
30
0.0
11
905.830000000000
21
184.470000000000
31
0.0
0
LINE
5
adb
100
AcDbEntity
8
1-0
6
CONTINUOUS
62
7
100
AcDbLine
10
905.830000000000
20
184.470000000000
30
0.0
11
906.530000000000
21
184.770000000000
31
0.0
0
LINE
5
adc
100
AcDbEntity
8
1-0
6
CONTINUOUS
62
7
100
AcDbLine
10
906.530000000000
20
184.770000000000
30
0.0
11
907.120000000000
21
185.040000000000
31
0.0
0
LINE
5
add
100
AcDbEntity
8
1-0
6
CONTINUOUS
62
7
100
AcDbLine
10
907.120000000000
20
185.040000000000
30
0.0
11
907.430000000000
21
185.190000000000
31
0.0
0
LINE
5
ade
100
AcDbEntity
8
1-0
6
CONTINUOUS
62
7
100
AcDbLine
10
908.910000000000
20
186.060000000000
30
0.0
11
910.400000000000
21
187.140000000000
31
0.0
0
LINE
5
adf
100
AcDbEntity
8
1-0
6
CONTINUOUS
62
7
100
AcDbLine
10
910.400000000000
20
187.140000000000
30
0.0
11
912.370000000000
21
189.030000000000
31
0.0
0
LINE
5
ae0
100
AcDbEntity
8
1-0
6
CONTINUOUS
62
7
100
AcDbLine
10
912.370000000000
20
189.030000000000
30
0.0
11
914.370000000000
21
191.300000000000
31
0.0
0
LINE
5
ae1
100
AcDbEntity
8
1-0
6
CONTINUOUS
62
7
100
AcDbLine
10
914.370000000000
20
191.300000000000
30
0.0
11
915.530000000000
21
192.710000000000
31
0.0
0
LINE
5
ae2
100
AcDbEntity
8
1-0
6
CONTINUOUS
62
7
100
AcDbLine
10
915.530000000000
20
192.710000000000
30
0.0
11
916.850000000000
21
194.370000000000
31
0.0
0
LINE
5
ae3
100
AcDbEntity
8
1-0
6
CONTINUOUS
62
7
100
AcDbLine
10
916.850000000000
20
194.370000000000
30
0.0
11
919.170000000000
21
197.270000000000
31
0.0
0
LINE
5
ae4
100
AcDbEntity
8
1-0
6
CONTINUOUS
62
7
100
AcDbLine
10
919.170000000000
20
197.270000000000
30
0.0
11
921.700000000000
21
200.170000000000
31
0.0
0
LINE
5
ae5
100
AcDbEntity
8
1-0
6
CONTINUOUS
62
7
100
AcDbLine
10
921.700000000000
20
200.170000000000
30
0.0
11
924.510000000000
21
202.930000000000
31
0.0
0
LINE
5
ae6
100
AcDbEntity
8
1-0
6
CONTINUOUS
62
7
100
AcDbLine
10
924.510000000000
20
202.930000000000
30
0.0
11
926.380000000000
21
204.460000000000
31
0.0
0
LINE
5
ae7
100
AcDbEntity
8
1-0
6
CONTINUOUS
62
7
100
AcDbLine
10
926.380000000000
20
204.460000000000
30
0.0
11
927.930000000000
21
205.570000000000
31
0.0
0
LINE
5
ae8
100
AcDbEntity
8
1-0
6
CONTINUOUS
62
7
100
AcDbLine
10
927.930000000000
20
205.570000000000
30
0.0
11
930.560000000000
21
207.150000000000
31
0.0
0
LINE
5
ae9
100
AcDbEntity
8
1-0
6
CONTINUOUS
62
7
100
AcDbLine
10
930.560000000000
20
207.150000000000
30
0.0
11
933.320000000000
21
208.520000000000
31
0.0
0
LINE
5
aea
100
AcDbEntity
8
1-0
6
CONTINUOUS
62
7
100
AcDbLine
10
933.320000000000
20
208.520000000000
30
0.0
11
936.090000000000
21
209.680000000000
31
0.0
0
LINE
5
aeb
100
AcDbEntity
8
1-0
6
CONTINUOUS
62
7
100
AcDbLine
10
936.090000000000
20
209.680000000000
30
0.0
11
937.750000000000
21
210.290000000000
31
0.0
0
LINE
5
aec
100
AcDbEntity
8
1-0
6
CONTINUOUS
62
7
100
AcDbLine
10
937.750000000000
20
210.290000000000
30
0.0
11
939.290000000000
21
210.810000000000
31
0.0
0
LINE
5
aed
100
AcDbEntity
8
1-0
6
CONTINUOUS
62
7
100
AcDbLine
10
939.290000000000
20
210.810000000000
30
0.0
11
941.960000000000
21
211.590000000000
31
0.0
0
LINE
5
aee
100
AcDbEntity
8
1-0
6
CONTINUOUS
62
7
100
AcDbLine
10
941.960000000000
20
211.590000000000
30
0.0
11
944.780000000000
21
212.190000000000
31
0.0
0
LINE
5
aef
100
AcDbEntity
8
1-0
6
CONTINUOUS
62
7
100
AcDbLine
10
944.780000000000
20
212.190000000000
30
0.0
11
947.660000000000
21
212.530000000000
31
0.0
0
LINE
5
af0
100
AcDbEntity
8
1-0
6
CONTINUOUS
62
7
100
AcDbLine
10
947.660000000000
20
212.530000000000
30
0.0
11
949.480000000000
21
212.580000000000
31
0.0
0
LINE
5
af1
100
AcDbEntity
8
1-0
6
CONTINUOUS
62
7
100
AcDbLine
10
949.480000000000
20
212.580000000000
30
0.0
11
951.280000000000
21
212.490000000000
31
0.0
0
LINE
5
af2
100
AcDbEntity
8
1-0
6
CONTINUOUS
62
7
100
AcDbLine
10
951.280000000000
20
212.490000000000
30
0.0
11
954.100000000000
21
212.100000000000
31
0.0
0
LINE
5
af3
100
AcDbEntity
8
1-0
6
CONTINUOUS
62
7
100
AcDbLine
10
954.100000000000
20
212.100000000000
30
0.0
11
956.830000000000
21
211.500000000000
31
0.0
0
LINE
5
af4
100
AcDbEntity
8
1-0
6
CONTINUOUS
62
7
100
AcDbLine
10
956.830000000000
20
211.500000000000
30
0.0
11
959.400000000000
21
210.790000000000
31
0.0
0
LINE
5
af5
100
AcDbEntity
8
1-0
6
CONTINUOUS
62
7
100
AcDbLine
10
959.400000000000
20
210.790000000000
30
0.0
11
960.840000000000
21
210.370000000000
31
0.0
0
LINE
5
af6
100
AcDbEntity
8
1-0
6
CONTINUOUS
62
7
100
AcDbLine
10
960.840000000000
20
210.370000000000
30
0.0
11
962.370000000000
21
209.900000000000
31
0.0
0
LINE
5
af7
100
AcDbEntity
8
1-0
6
CONTINUOUS
62
7
100
AcDbLine
10
962.370000000000
20
209.900000000000
30
0.0
11
965.040000000000
21
209.040000000000
31
0.0
0
LINE
5
af8
100
AcDbEntity
8
1-0
6
CONTINUOUS
62
7
100
AcDbLine
10
965.040000000000
20
209.040000000000
30
0.0
11
967.780000000000
21
208.010000000000
31
0.0
0
LINE
5
af9
100
AcDbEntity
8
1-0
6
CONTINUOUS
62
7
100
AcDbLine
10
967.780000000000
20
208.010000000000
30
0.0
11
970.470000000000
21
206.740000000000
31
0.0
0
LINE
5
afa
100
AcDbEntity
8
1-0
6
CONTINUOUS
62
7
100
AcDbLine
10
970.470000000000
20
206.740000000000
30
0.0
11
972.110000000000
21
205.790000000000
31
0.0
0
LINE
5
afb
100
AcDbEntity
8
1-0
6
CONTINUOUS
62
7
100
AcDbLine
10
972.110000000000
20
205.790000000000
30
0.0
11
974.080000000000
21
204.410000000000
31
0.0
0
LINE
5
afc
100
AcDbEntity
8
1-0
6
CONTINUOUS
62
7
100
AcDbLine
10
974.080000000000
20
204.410000000000
30
0.0
11
977.000000000000
21
201.870000000000
31
0.0
0
LINE
5
afd
100
AcDbEntity
8
1-0
6
CONTINUOUS
62
7
100
AcDbLine
10
977.000000000000
20
201.870000000000
30
0.0
11
979.590000000000
21
199.110000000000
31
0.0
0
LINE
5
afe
100
AcDbEntity
8
1-0
6
CONTINUOUS
62
7
100
AcDbLine
10
979.590000000000
20
199.110000000000
30
0.0
11
981.940000000000
21
196.350000000000
31
0.0
0
LINE
5
aff
100
AcDbEntity
8
1-0
6
CONTINUOUS
62
7
100
AcDbLine
10
981.940000000000
20
196.350000000000
30
0.0
11
983.240000000000
21
194.800000000000
31
0.0
0
LINE
5
b00
100
AcDbEntity
8
1-0
6
CONTINUOUS
62
7
100
AcDbLine
10
983.240000000000
20
194.800000000000
30
0.0
11
984.420000000000
21
193.410000000000
31
0.0
0
LINE
5
b01
100
AcDbEntity
8
1-0
6
CONTINUOUS
62
7
100
AcDbLine
10
984.420000000000
20
193.410000000000
30
0.0
11
986.470000000000
21
191.170000000000
31
0.0
0
LINE
5
b02
100
AcDbEntity
8
1-0
6
CONTINUOUS
62
7
100
AcDbLine
10
986.470000000000
20
191.170000000000
30
0.0
11
988.500000000000
21
189.250000000000
31
0.0
0
LINE
5
b03
100
AcDbEntity
8
1-0
6
CONTINUOUS
62
7
100
AcDbLine
10
988.500000000000
20
189.250000000000
30
0.0
11
990.590000000000
21
187.670000000000
31
0.0
0
LINE
5
b04
100
AcDbEntity
8
1-0
6
CONTINUOUS
62
7
100
AcDbLine
10
990.590000000000
20
187.670000000000
30
0.0
11
991.740000000000
21
187.000000000000
31
0.0
0
LINE
5
b05
100
AcDbEntity
8
1-0
6
CONTINUOUS
62
7
100
AcDbLine
10
991.740000000000
20
187.000000000000
30
0.0
11
992.640000000000
21
186.580000000000
31
0.0
0
LINE
5
b06
100
AcDbEntity
8
1-0
6
CONTINUOUS
62
7
100
AcDbLine
10
992.640000000000
20
186.580000000000
30
0.0
11
994.590000000000
21
185.870000000000
31
0.0
0
LINE
5
b07
100
AcDbEntity
8
1-0
6
CONTINUOUS
62
7
100
AcDbLine
10
994.590000000000
20
185.870000000000
30
0.0
11
996.710000000000
21
185.280000000000
31
0.0
0
LINE
5
b08
100
AcDbEntity
8
1-0
6
CONTINUOUS
62
7
100
AcDbLine
10
996.710000000000
20
185.280000000000
30
0.0
11
999.030000000000
21
184.760000000000
31
0.0
0
LINE
5
b09
100
AcDbEntity
8
1-0
6
CONTINUOUS
62
7
100
AcDbLine
10
999.030000000000
20
184.760000000000
30
0.0
11
1000.410000000000
21
184.470000000000
31
0.0
0
LINE
5
b0a
100
AcDbEntity
8
1-0
6
CONTINUOUS
62
7
100
AcDbLine
10
1000.410000000000
20
184.470000000000
30
0.0
11
1001.230000000000
21
184.310000000000
31
0.0
0
LINE
5
b0b
100
AcDbEntity
8
1-0
6
CONTINUOUS
62
7
100
AcDbLine
10
1001.230000000000
20
184.310000000000
30
0.0
11
1002.280000000000
21
184.090000000000
31
0.0
0
LINE
5
b0c
100
AcDbEntity
8
1-0
6
CONTINUOUS
62
7
100
AcDbLine
10
1002.280000000000
20
184.090000000000
30
0.0
11
1003.190000000000
21
183.910000000000
31
0.0
0
LINE
5
b0d
100
AcDbEntity
8
1-0
6
CONTINUOUS
62
7
100
AcDbLine
10
1003.190000000000
20
183.910000000000
30
0.0
11
1003.940000000000
21
183.750000000000
31
0.0
0
LINE
5
b0e
100
AcDbEntity
8
1-0
6
CONTINUOUS
62
7
100
AcDbLine
10
908.910000000000
20
186.060000000000
30
0.0
11
910.400000000000
21
187.140000000000
31
0.0
0
LINE
5
b0f
100
AcDbEntity
8
1-0
6
CONTINUOUS
62
7
100
AcDbLine
10
910.400000000000
20
187.140000000000
30
0.0
11
912.370000000000
21
189.030000000000
31
0.0
0
LINE
5
b10
100
AcDbEntity
8
1-0
6
CONTINUOUS
62
7
100
AcDbLine
10
912.370000000000
20
189.030000000000
30
0.0
11
914.370000000000
21
191.300000000000
31
0.0
0
LINE
5
b11
100
AcDbEntity
8
1-0
6
CONTINUOUS
62
7
100
AcDbLine
10
914.370000000000
20
191.300000000000
30
0.0
11
915.530000000000
21
192.710000000000
31
0.0
0
LINE
5
b12
100
AcDbEntity
8
1-0
6
CONTINUOUS
62
7
100
AcDbLine
10
915.530000000000
20
192.710000000000
30
0.0
11
916.850000000000
21
194.370000000000
31
0.0
0
LINE
5
b13
100
AcDbEntity
8
1-0
6
CONTINUOUS
62
7
100
AcDbLine
10
916.850000000000
20
194.370000000000
30
0.0
11
919.170000000000
21
197.270000000000
31
0.0
0
LINE
5
b14
100
AcDbEntity
8
1-0
6
CONTINUOUS
62
7
100
AcDbLine
10
919.170000000000
20
197.270000000000
30
0.0
11
921.700000000000
21
200.170000000000
31
0.0
0
LINE
5
b15
100
AcDbEntity
8
1-0
6
CONTINUOUS
62
7
100
AcDbLine
10
921.700000000000
20
200.170000000000
30
0.0
11
924.510000000000
21
202.930000000000
31
0.0
0
LINE
5
b16
100
AcDbEntity
8
1-0
6
CONTINUOUS
62
7
100
AcDbLine
10
924.510000000000
20
202.930000000000
30
0.0
11
926.380000000000
21
204.460000000000
31
0.0
0
LINE
5
b17
100
AcDbEntity
8
1-0
6
CONTINUOUS
62
7
100
AcDbLine
10
926.380000000000
20
204.460000000000
30
0.0
11
927.930000000000
21
205.570000000000
31
0.0
0
LINE
5
b18
100
AcDbEntity
8
1-0
6
CONTINUOUS
62
7
100
AcDbLine
10
927.930000000000
20
205.570000000000
30
0.0
11
930.560000000000
21
207.150000000000
31
0.0
0
LINE
5
b19
100
AcDbEntity
8
1-0
6
CONTINUOUS
62
7
100
AcDbLine
10
930.560000000000
20
207.150000000000
30
0.0
11
933.320000000000
21
208.520000000000
31
0.0
0
LINE
5
b1a
100
AcDbEntity
8
1-0
6
CONTINUOUS
62
7
100
AcDbLine
10
933.320000000000
20
208.520000000000
30
0.0
11
936.090000000000
21
209.680000000000
31
0.0
0
LINE
5
b1b
100
AcDbEntity
8
1-0
6
CONTINUOUS
62
7
100
AcDbLine
10
936.090000000000
20
209.680000000000
30
0.0
11
937.750000000000
21
210.290000000000
31
0.0
0
LINE
5
b1c
100
AcDbEntity
8
1-0
6
CONTINUOUS
62
7
100
AcDbLine
10
937.750000000000
20
210.290000000000
30
0.0
11
939.290000000000
21
210.810000000000
31
0.0
0
LINE
5
b1d
100
AcDbEntity
8
1-0
6
CONTINUOUS
62
7
100
AcDbLine
10
939.290000000000
20
210.810000000000
30
0.0
11
941.960000000000
21
211.590000000000
31
0.0
0
LINE
5
b1e
100
AcDbEntity
8
1-0
6
CONTINUOUS
62
7
100
AcDbLine
10
941.960000000000
20
211.590000000000
30
0.0
11
944.780000000000
21
212.190000000000
31
0.0
0
LINE
5
b1f
100
AcDbEntity
8
1-0
6
CONTINUOUS
62
7
100
AcDbLine
10
944.780000000000
20
212.190000000000
30
0.0
11
947.660000000000
21
212.530000000000
31
0.0
0
LINE
5
b20
100
AcDbEntity
8
1-0
6
CONTINUOUS
62
7
100
AcDbLine
10
947.660000000000
20
212.530000000000
30
0.0
11
949.480000000000
21
212.580000000000
31
0.0
0
LINE
5
b21
100
AcDbEntity
8
1-0
6
CONTINUOUS
62
7
100
AcDbLine
10
949.480000000000
20
212.580000000000
30
0.0
11
951.280000000000
21
212.490000000000
31
0.0
0
LINE
5
b22
100
AcDbEntity
8
1-0
6
CONTINUOUS
62
7
100
AcDbLine
10
951.280000000000
20
212.490000000000
30
0.0
11
954.100000000000
21
212.100000000000
31
0.0
0
LINE
5
b23
100
AcDbEntity
8
1-0
6
CONTINUOUS
62
7
100
AcDbLine
10
954.100000000000
20
212.100000000000
30
0.0
11
956.830000000000
21
211.500000000000
31
0.0
0
LINE
5
b24
100
AcDbEntity
8
1-0
6
CONTINUOUS
62
7
100
AcDbLine
10
956.830000000000
20
211.500000000000
30
0.0
11
959.400000000000
21
210.790000000000
31
0.0
0
LINE
5
b25
100
AcDbEntity
8
1-0
6
CONTINUOUS
62
7
100
AcDbLine
10
959.400000000000
20
210.790000000000
30
0.0
11
960.840000000000
21
210.370000000000
31
0.0
0
LINE
5
b26
100
AcDbEntity
8
1-0
6
CONTINUOUS
62
7
100
AcDbLine
10
960.840000000000
20
210.370000000000
30
0.0
11
962.370000000000
21
209.900000000000
31
0.0
0
LINE
5
b27
100
AcDbEntity
8
1-0
6
CONTINUOUS
62
7
100
AcDbLine
10
962.370000000000
20
209.900000000000
30
0.0
11
965.040000000000
21
209.040000000000
31
0.0
0
LINE
5
b28
100
AcDbEntity
8
1-0
6
CONTINUOUS
62
7
100
AcDbLine
10
965.040000000000
20
209.040000000000
30
0.0
11
967.780000000000
21
208.010000000000
31
0.0
0
LINE
5
b29
100
AcDbEntity
8
1-0
6
CONTINUOUS
62
7
100
AcDbLine
10
967.780000000000
20
208.010000000000
30
0.0
11
970.470000000000
21
206.740000000000
31
0.0
0
LINE
5
b2a
100
AcDbEntity
8
1-0
6
CONTINUOUS
62
7
100
AcDbLine
10
970.470000000000
20
206.740000000000
30
0.0
11
972.110000000000
21
205.790000000000
31
0.0
0
LINE
5
b2b
100
AcDbEntity
8
1-0
6
CONTINUOUS
62
7
100
AcDbLine
10
972.110000000000
20
205.790000000000
30
0.0
11
974.080000000000
21
204.410000000000
31
0.0
0
LINE
5
b2c
100
AcDbEntity
8
1-0
6
CONTINUOUS
62
7
100
AcDbLine
10
974.080000000000
20
204.410000000000
30
0.0
11
977.000000000000
21
201.870000000000
31
0.0
0
LINE
5
b2d
100
AcDbEntity
8
1-0
6
CONTINUOUS
62
7
100
AcDbLine
10
977.000000000000
20
201.870000000000
30
0.0
11
979.590000000000
21
199.110000000000
31
0.0
0
LINE
5
b2e
100
AcDbEntity
8
1-0
6
CONTINUOUS
62
7
100
AcDbLine
10
979.590000000000
20
199.110000000000
30
0.0
11
981.940000000000
21
196.350000000000
31
0.0
0
LINE
5
b2f
100
AcDbEntity
8
1-0
6
CONTINUOUS
62
7
100
AcDbLine
10
981.940000000000
20
196.350000000000
30
0.0
11
983.240000000000
21
194.800000000000
31
0.0
0
LINE
5
b30
100
AcDbEntity
8
1-0
6
CONTINUOUS
62
7
100
AcDbLine
10
983.240000000000
20
194.800000000000
30
0.0
11
984.420000000000
21
193.410000000000
31
0.0
0
LINE
5
b31
100
AcDbEntity
8
1-0
6
CONTINUOUS
62
7
100
AcDbLine
10
984.420000000000
20
193.410000000000
30
0.0
11
986.470000000000
21
191.170000000000
31
0.0
0
LINE
5
b32
100
AcDbEntity
8
1-0
6
CONTINUOUS
62
7
100
AcDbLine
10
986.470000000000
20
191.170000000000
30
0.0
11
988.500000000000
21
189.250000000000
31
0.0
0
LINE
5
b33
100
AcDbEntity
8
1-0
6
CONTINUOUS
62
7
100
AcDbLine
10
988.500000000000
20
189.250000000000
30
0.0
11
990.590000000000
21
187.670000000000
31
0.0
0
LINE
5
b34
100
AcDbEntity
8
1-0
6
CONTINUOUS
62
7
100
AcDbLine
10
990.590000000000
20
187.670000000000
30
0.0
11
991.740000000000
21
187.000000000000
31
0.0
0
LINE
5
b35
100
AcDbEntity
8
1-0
6
CONTINUOUS
62
7
100
AcDbLine
10
991.740000000000
20
187.000000000000
30
0.0
11
992.640000000000
21
186.580000000000
31
0.0
0
LINE
5
b36
100
AcDbEntity
8
1-0
6
CONTINUOUS
62
7
100
AcDbLine
10
992.640000000000
20
186.580000000000
30
0.0
11
994.590000000000
21
185.870000000000
31
0.0
0
LINE
5
b37
100
AcDbEntity
8
1-0
6
CONTINUOUS
62
7
100
AcDbLine
10
994.590000000000
20
185.870000000000
30
0.0
11
996.710000000000
21
185.280000000000
31
0.0
0
LINE
5
b38
100
AcDbEntity
8
1-0
6
CONTINUOUS
62
7
100
AcDbLine
10
996.710000000000
20
185.280000000000
30
0.0
11
999.030000000000
21
184.760000000000
31
0.0
0
LINE
5
b39
100
AcDbEntity
8
1-0
6
CONTINUOUS
62
7
100
AcDbLine
10
999.030000000000
20
184.760000000000
30
0.0
11
1000.410000000000
21
184.470000000000
31
0.0
0
LINE
5
b3a
100
AcDbEntity
8
1-0
6
CONTINUOUS
62
7
100
AcDbLine
10
1000.410000000000
20
184.470000000000
30
0.0
11
1001.230000000000
21
184.310000000000
31
0.0
0
LINE
5
b3b
100
AcDbEntity
8
1-0
6
CONTINUOUS
62
7
100
AcDbLine
10
1001.230000000000
20
184.310000000000
30
0.0
11
1002.280000000000
21
184.090000000000
31
0.0
0
LINE
5
b3c
100
AcDbEntity
8
1-0
6
CONTINUOUS
62
7
100
AcDbLine
10
1002.280000000000
20
184.090000000000
30
0.0
11
1003.190000000000
21
183.910000000000
31
0.0
0
LINE
5
b3d
100
AcDbEntity
8
1-0
6
CONTINUOUS
62
7
100
AcDbLine
10
1003.190000000000
20
183.910000000000
30
0.0
11
1003.940000000000
21
183.750000000000
31
0.0
0
LINE
5
b3e
100
AcDbEntity
8
1-0
6
CONTINUOUS
62
7
100
AcDbLine
10
896.290000000000
20
182.580000000000
30
0.0
11
896.740000000000
21
182.610000000000
31
0.0
0
LINE
5
b3f
100
AcDbEntity
8
1-0
6
CONTINUOUS
62
7
100
AcDbLine
10
896.740000000000
20
182.610000000000
30
0.0
11
897.560000000000
21
182.660000000000
31
0.0
0
LINE
5
b40
100
AcDbEntity
8
1-0
6
CONTINUOUS
62
7
100
AcDbLine
10
897.560000000000
20
182.660000000000
30
0.0
11
898.470000000000
21
182.730000000000
31
0.0
0
LINE
5
b41
100
AcDbEntity
8
1-0
6
CONTINUOUS
62
7
100
AcDbLine
10
898.470000000000
20
182.730000000000
30
0.0
11
899.420000000000
21
182.820000000000
31
0.0
0
LINE
5
b42
100
AcDbEntity
8
1-0
6
CONTINUOUS
62
7
100
AcDbLine
10
899.420000000000
20
182.820000000000
30
0.0
11
900.050000000000
21
182.900000000000
31
0.0
0
LINE
5
b43
100
AcDbEntity
8
1-0
6
CONTINUOUS
62
7
100
AcDbLine
10
900.050000000000
20
182.900000000000
30
0.0
11
900.680000000000
21
183.000000000000
31
0.0
0
LINE
5
b44
100
AcDbEntity
8
1-0
6
CONTINUOUS
62
7
100
AcDbLine
10
900.680000000000
20
183.000000000000
30
0.0
11
901.680000000000
21
183.180000000000
31
0.0
0
LINE
5
b45
100
AcDbEntity
8
1-0
6
CONTINUOUS
62
7
100
AcDbLine
10
901.680000000000
20
183.180000000000
30
0.0
11
902.760000000000
21
183.430000000000
31
0.0
0
LINE
5
b46
100
AcDbEntity
8
1-0
6
CONTINUOUS
62
7
100
AcDbLine
10
902.760000000000
20
183.430000000000
30
0.0
11
903.820000000000
21
183.730000000000
31
0.0
0
LINE
5
b47
100
AcDbEntity
8
1-0
6
CONTINUOUS
62
7
100
AcDbLine
10
903.820000000000
20
183.730000000000
30
0.0
11
904.510000000000
21
183.960000000000
31
0.0
0
LINE
5
b48
100
AcDbEntity
8
1-0
6
CONTINUOUS
62
7
100
AcDbLine
10
904.510000000000
20
183.960000000000
30
0.0
11
905.070000000000
21
184.160000000000
31
0.0
0
LINE
5
b49
100
AcDbEntity
8
1-0
6
CONTINUOUS
62
7
100
AcDbLine
10
905.070000000000
20
184.160000000000
30
0.0
11
905.830000000000
21
184.470000000000
31
0.0
0
LINE
5
b4a
100
AcDbEntity
8
1-0
6
CONTINUOUS
62
7
100
AcDbLine
10
905.830000000000
20
184.470000000000
30
0.0
11
906.530000000000
21
184.770000000000
31
0.0
0
LINE
5
b4b
100
AcDbEntity
8
1-0
6
CONTINUOUS
62
7
100
AcDbLine
10
906.530000000000
20
184.770000000000
30
0.0
11
907.120000000000
21
185.040000000000
31
0.0
0
LINE
5
b4c
100
AcDbEntity
8
1-0
6
CONTINUOUS
62
7
100
AcDbLine
10
907.120000000000
20
185.040000000000
30
0.0
11
907.430000000000
21
185.190000000000
31
0.0
0
LINE
5
b4d
100
AcDbEntity
8
1-0
6
CONTINUOUS
62
7
100
AcDbLine
10
907.430000000000
20
185.190000000000
30
0.0
11
907.580000000000
21
185.260000000000
31
0.0
0
LINE
5
b4e
100
AcDbEntity
8
1-0
6
CONTINUOUS
62
7
100
AcDbLine
10
907.580000000000
20
185.260000000000
30
0.0
11
907.850000000000
21
185.390000000000
31
0.0
0
LINE
5
b4f
100
AcDbEntity
8
1-0
6
CONTINUOUS
62
7
100
AcDbLine
10
907.850000000000
20
185.390000000000
30
0.0
11
908.110000000000
21
185.530000000000
31
0.0
0
LINE
5
b50
100
AcDbEntity
8
1-0
6
CONTINUOUS
62
7
100
AcDbLine
10
908.110000000000
20
185.530000000000
30
0.0
11
908.360000000000
21
185.670000000000
31
0.0
0
LINE
5
b51
100
AcDbEntity
8
1-0
6
CONTINUOUS
62
7
100
AcDbLine
10
908.360000000000
20
185.670000000000
30
0.0
11
908.510000000000
21
185.770000000000
31
0.0
0
LINE
5
b52
100
AcDbEntity
8
1-0
6
CONTINUOUS
62
7
100
AcDbLine
10
908.510000000000
20
185.770000000000
30
0.0
11
908.560000000000
21
185.800000000000
31
0.0
0
LINE
5
b53
100
AcDbEntity
8
1-0
6
CONTINUOUS
62
7
100
AcDbLine
10
908.560000000000
20
185.800000000000
30
0.0
11
908.660000000000
21
185.870000000000
31
0.0
0
LINE
5
b54
100
AcDbEntity
8
1-0
6
CONTINUOUS
62
7
100
AcDbLine
10
908.660000000000
20
185.870000000000
30
0.0
11
908.760000000000
21
185.950000000000
31
0.0
0
LINE
5
b55
100
AcDbEntity
8
1-0
6
CONTINUOUS
62
7
100
AcDbLine
10
908.760000000000
20
185.950000000000
30
0.0
11
908.850000000000
21
186.020000000000
31
0.0
0
LINE
5
b56
100
AcDbEntity
8
1-0
6
CONTINUOUS
62
7
100
AcDbLine
10
908.850000000000
20
186.020000000000
30
0.0
11
908.910000000000
21
186.060000000000
31
0.0
0
LINE
5
b57
100
AcDbEntity
8
1-0
6
CONTINUOUS
62
7
100
AcDbLine
10
908.750000000000
20
1040.970000000000
30
0.0
11
902.420000000000
21
1040.640000000000
31
0.0
0
LINE
5
b58
100
AcDbEntity
8
1-0
6
CONTINUOUS
62
7
100
AcDbLine
10
910.080000000000
20
1041.310000000000
30
0.0
11
908.750000000000
21
1040.970000000000
31
0.0
0
LINE
5
b59
100
AcDbEntity
8
1-0
6
CONTINUOUS
62
7
100
AcDbLine
10
910.970000000000
20
1041.640000000000
30
0.0
11
910.080000000000
21
1041.310000000000
31
0.0
0
LINE
5
b5a
100
AcDbEntity
8
1-0
6
CONTINUOUS
62
7
100
AcDbLine
10
911.420000000000
20
1041.970000000000
30
0.0
11
910.970000000000
21
1041.640000000000
31
0.0
0
LINE
5
b5b
100
AcDbEntity
8
1-0
6
CONTINUOUS
62
7
100
AcDbLine
10
911.420000000000
20
1042.310000000000
30
0.0
11
911.420000000000
21
1041.970000000000
31
0.0
0
LINE
5
b5c
100
AcDbEntity
8
1-0
6
CONTINUOUS
62
7
100
AcDbLine
10
910.970000000000
20
1042.640000000000
30
0.0
11
911.420000000000
21
1042.310000000000
31
0.0
0
LINE
5
b5d
100
AcDbEntity
8
1-0
6
CONTINUOUS
62
7
100
AcDbLine
10
910.080000000000
20
1042.970000000000
30
0.0
11
910.970000000000
21
1042.640000000000
31
0.0
0
LINE
5
b5e
100
AcDbEntity
8
1-0
6
CONTINUOUS
62
7
100
AcDbLine
10
908.750000000000
20
1043.310000000000
30
0.0
11
910.080000000000
21
1042.970000000000
31
0.0
0
LINE
5
b5f
100
AcDbEntity
8
1-0
6
CONTINUOUS
62
7
100
AcDbLine
10
902.420000000000
20
1043.640000000000
30
0.0
11
908.750000000000
21
1043.310000000000
31
0.0
0
LINE
5
b60
100
AcDbEntity
8
1-0
6
CONTINUOUS
62
7
100
AcDbLine
10
864.080000000000
20
1040.970000000000
30
0.0
11
870.420000000000
21
1040.640000000000
31
0.0
0
LINE
5
b61
100
AcDbEntity
8
1-0
6
CONTINUOUS
62
7
100
AcDbLine
10
862.750000000000
20
1041.310000000000
30
0.0
11
864.080000000000
21
1040.970000000000
31
0.0
0
LINE
5
b62
100
AcDbEntity
8
1-0
6
CONTINUOUS
62
7
100
AcDbLine
10
861.860000000000
20
1041.640000000000
30
0.0
11
862.750000000000
21
1041.310000000000
31
0.0
0
LINE
5
b63
100
AcDbEntity
8
1-0
6
CONTINUOUS
62
7
100
AcDbLine
10
861.420000000000
20
1041.970000000000
30
0.0
11
861.860000000000
21
1041.640000000000
31
0.0
0
LINE
5
b64
100
AcDbEntity
8
1-0
6
CONTINUOUS
62
7
100
AcDbLine
10
861.420000000000
20
1042.310000000000
30
0.0
11
861.420000000000
21
1041.970000000000
31
0.0
0
LINE
5
b65
100
AcDbEntity
8
1-0
6
CONTINUOUS
62
7
100
AcDbLine
10
861.860000000000
20
1042.640000000000
30
0.0
11
861.420000000000
21
1042.310000000000
31
0.0
0
LINE
5
b66
100
AcDbEntity
8
1-0
6
CONTINUOUS
62
7
100
AcDbLine
10
862.750000000000
20
1042.970000000000
30
0.0
11
861.860000000000
21
1042.640000000000
31
0.0
0
LINE
5
b67
100
AcDbEntity
8
1-0
6
CONTINUOUS
62
7
100
AcDbLine
10
864.080000000000
20
1043.310000000000
30
0.0
11
862.750000000000
21
1042.970000000000
31
0.0
0
LINE
5
b68
100
AcDbEntity
8
1-0
6
CONTINUOUS
62
7
100
AcDbLine
10
870.420000000000
20
1043.640000000000
30
0.0
11
864.080000000000
21
1043.310000000000
31
0.0
0
LINE
5
b69
100
AcDbEntity
8
3-0
6
CONTINUOUS
62
7
100
AcDbLine
10
892.650000000000
20
478.280000000000
30
0.0
11
895.780000000000
21
478.190000000000
31
0.0
0
LINE
5
b6a
100
AcDbEntity
8
3-0
6
CONTINUOUS
62
7
100
AcDbLine
10
890.000000000000
20
478.350000000000
30
0.0
11
892.650000000000
21
478.280000000000
31
0.0
0
LINE
5
b6b
100
AcDbEntity
8
3-0
6
CONTINUOUS
62
7
100
AcDbLine
10
886.900000000000
20
478.440000000000
30
0.0
11
890.000000000000
21
478.350000000000
31
0.0
0
LINE
5
b6c
100
AcDbEntity
8
3-0
6
CONTINUOUS
62
7
100
AcDbLine
10
884.530000000000
20
478.500000000000
30
0.0
11
886.900000000000
21
478.440000000000
31
0.0
0
LINE
5
b6d
100
AcDbEntity
8
3-0
6
CONTINUOUS
62
7
100
AcDbLine
10
882.230000000000
20
478.570000000000
30
0.0
11
884.530000000000
21
478.500000000000
31
0.0
0
LINE
5
b6e
100
AcDbEntity
8
3-0
6
CONTINUOUS
62
7
100
AcDbLine
10
880.150000000000
20
478.630000000000
30
0.0
11
882.230000000000
21
478.570000000000
31
0.0
0
LINE
5
b6f
100
AcDbEntity
8
3-0
6
CONTINUOUS
62
7
100
AcDbLine
10
878.190000000000
20
478.690000000000
30
0.0
11
880.150000000000
21
478.630000000000
31
0.0
0
LINE
5
b70
100
AcDbEntity
8
3-0
6
CONTINUOUS
62
7
100
AcDbLine
10
876.420000000000
20
478.750000000000
30
0.0
11
878.190000000000
21
478.690000000000
31
0.0
0
LINE
5
b71
100
AcDbEntity
8
3-0
6
CONTINUOUS
62
7
100
AcDbLine
10
874.740000000000
20
478.800000000000
30
0.0
11
876.420000000000
21
478.750000000000
31
0.0
0
LINE
5
b72
100
AcDbEntity
8
3-0
6
CONTINUOUS
62
7
100
AcDbLine
10
874.130000000000
20
478.820000000000
30
0.0
11
874.740000000000
21
478.800000000000
31
0.0
0
LINE
5
b73
100
AcDbEntity
8
1-0
6
CONTINUOUS
62
7
100
AcDbLine
10
892.190000000000
20
465.290000000000
30
0.0
11
895.420000000000
21
465.190000000000
31
0.0
0
LINE
5
b74
100
AcDbEntity
8
1-0
6
CONTINUOUS
62
7
100
AcDbLine
10
889.260000000000
20
465.370000000000
30
0.0
11
892.190000000000
21
465.290000000000
31
0.0
0
LINE
5
b75
100
AcDbEntity
8
1-0
6
CONTINUOUS
62
7
100
AcDbLine
10
886.590000000000
20
465.440000000000
30
0.0
11
889.260000000000
21
465.370000000000
31
0.0
0
LINE
5
b76
100
AcDbEntity
8
1-0
6
CONTINUOUS
62
7
100
AcDbLine
10
884.130000000000
20
465.510000000000
30
0.0
11
886.590000000000
21
465.440000000000
31
0.0
0
LINE
5
b77
100
AcDbEntity
8
1-0
6
CONTINUOUS
62
7
100
AcDbLine
10
881.860000000000
20
465.580000000000
30
0.0
11
884.130000000000
21
465.510000000000
31
0.0
0
LINE
5
b78
100
AcDbEntity
8
1-0
6
CONTINUOUS
62
7
100
AcDbLine
10
879.750000000000
20
465.640000000000
30
0.0
11
881.860000000000
21
465.580000000000
31
0.0
0
LINE
5
b79
100
AcDbEntity
8
1-0
6
CONTINUOUS
62
7
100
AcDbLine
10
877.800000000000
20
465.700000000000
30
0.0
11
879.750000000000
21
465.640000000000
31
0.0
0
LINE
5
b7a
100
AcDbEntity
8
1-0
6
CONTINUOUS
62
7
100
AcDbLine
10
875.990000000000
20
465.750000000000
30
0.0
11
877.800000000000
21
465.700000000000
31
0.0
0
LINE
5
b7b
100
AcDbEntity
8
1-0
6
CONTINUOUS
62
7
100
AcDbLine
10
874.310000000000
20
465.810000000000
30
0.0
11
875.990000000000
21
465.750000000000
31
0.0
0
LINE
5
b7c
100
AcDbEntity
8
1-0
6
CONTINUOUS
62
7
100
AcDbLine
10
872.760000000000
20
465.860000000000
30
0.0
11
874.310000000000
21
465.810000000000
31
0.0
0
LINE
5
b7d
100
AcDbEntity
8
1-0
6
CONTINUOUS
62
7
100
AcDbLine
10
871.320000000000
20
465.920000000000
30
0.0
11
872.760000000000
21
465.860000000000
31
0.0
0
LINE
5
b7e
100
AcDbEntity
8
1-0
6
CONTINUOUS
62
7
100
AcDbLine
10
871.060000000000
20
465.930000000000
30
0.0
11
871.320000000000
21
465.920000000000
31
0.0
0
LINE
5
b7f
100
AcDbEntity
8
1-0
6
CONTINUOUS
62
7
100
AcDbLine
10
854.420000000000
20
471.190000000000
30
0.0
11
854.950000000000
21
470.930000000000
31
0.0
0
LINE
5
b80
100
AcDbEntity
8
1-0
6
CONTINUOUS
62
7
100
AcDbLine
10
854.950000000000
20
470.930000000000
30
0.0
11
855.430000000000
21
470.690000000000
31
0.0
0
LINE
5
b81
100
AcDbEntity
8
1-0
6
CONTINUOUS
62
7
100
AcDbLine
10
855.430000000000
20
470.690000000000
30
0.0
11
855.880000000000
21
470.470000000000
31
0.0
0
LINE
5
b82
100
AcDbEntity
8
1-0
6
CONTINUOUS
62
7
100
AcDbLine
10
855.880000000000
20
470.470000000000
30
0.0
11
856.290000000000
21
470.270000000000
31
0.0
0
LINE
5
b83
100
AcDbEntity
8
1-0
6
CONTINUOUS
62
7
100
AcDbLine
10
856.290000000000
20
470.270000000000
30
0.0
11
856.670000000000
21
470.080000000000
31
0.0
0
LINE
5
b84
100
AcDbEntity
8
1-0
6
CONTINUOUS
62
7
100
AcDbLine
10
856.670000000000
20
470.080000000000
30
0.0
11
857.030000000000
21
469.910000000000
31
0.0
0
LINE
5
b85
100
AcDbEntity
8
1-0
6
CONTINUOUS
62
7
100
AcDbLine
10
857.030000000000
20
469.910000000000
30
0.0
11
857.370000000000
21
469.750000000000
31
0.0
0
LINE
5
b86
100
AcDbEntity
8
1-0
6
CONTINUOUS
62
7
100
AcDbLine
10
857.370000000000
20
469.750000000000
30
0.0
11
857.700000000000
21
469.600000000000
31
0.0
0
LINE
5
b87
100
AcDbEntity
8
1-0
6
CONTINUOUS
62
7
100
AcDbLine
10
857.700000000000
20
469.600000000000
30
0.0
11
858.010000000000
21
469.450000000000
31
0.0
0
LINE
5
b88
100
AcDbEntity
8
1-0
6
CONTINUOUS
62
7
100
AcDbLine
10
858.010000000000
20
469.450000000000
30
0.0
11
858.320000000000
21
469.320000000000
31
0.0
0
LINE
5
b89
100
AcDbEntity
8
1-0
6
CONTINUOUS
62
7
100
AcDbLine
10
858.320000000000
20
469.320000000000
30
0.0
11
858.620000000000
21
469.180000000000
31
0.0
0
LINE
5
b8a
100
AcDbEntity
8
1-0
6
CONTINUOUS
62
7
100
AcDbLine
10
858.620000000000
20
469.180000000000
30
0.0
11
858.910000000000
21
469.060000000000
31
0.0
0
LINE
5
b8b
100
AcDbEntity
8
1-0
6
CONTINUOUS
62
7
100
AcDbLine
10
858.910000000000
20
469.060000000000
30
0.0
11
859.200000000000
21
468.940000000000
31
0.0
0
LINE
5
b8c
100
AcDbEntity
8
1-0
6
CONTINUOUS
62
7
100
AcDbLine
10
859.200000000000
20
468.940000000000
30
0.0
11
859.490000000000
21
468.820000000000
31
0.0
0
LINE
5
b8d
100
AcDbEntity
8
1-0
6
CONTINUOUS
62
7
100
AcDbLine
10
859.490000000000
20
468.820000000000
30
0.0
11
859.770000000000
21
468.700000000000
31
0.0
0
LINE
5
b8e
100
AcDbEntity
8
1-0
6
CONTINUOUS
62
7
100
AcDbLine
10
859.770000000000
20
468.700000000000
30
0.0
11
860.060000000000
21
468.590000000000
31
0.0
0
LINE
5
b8f
100
AcDbEntity
8
1-0
6
CONTINUOUS
62
7
100
AcDbLine
10
860.060000000000
20
468.590000000000
30
0.0
11
860.340000000000
21
468.490000000000
31
0.0
0
LINE
5
b90
100
AcDbEntity
8
1-0
6
CONTINUOUS
62
7
100
AcDbLine
10
860.340000000000
20
468.490000000000
30
0.0
11
860.630000000000
21
468.380000000000
31
0.0
0
LINE
5
b91
100
AcDbEntity
8
1-0
6
CONTINUOUS
62
7
100
AcDbLine
10
860.630000000000
20
468.380000000000
30
0.0
11
860.920000000000
21
468.280000000000
31
0.0
0
LINE
5
b92
100
AcDbEntity
8
1-0
6
CONTINUOUS
62
7
100
AcDbLine
10
860.920000000000
20
468.280000000000
30
0.0
11
861.210000000000
21
468.180000000000
31
0.0
0
LINE
5
b93
100
AcDbEntity
8
1-0
6
CONTINUOUS
62
7
100
AcDbLine
10
861.210000000000
20
468.180000000000
30
0.0
11
861.510000000000
21
468.080000000000
31
0.0
0
LINE
5
b94
100
AcDbEntity
8
1-0
6
CONTINUOUS
62
7
100
AcDbLine
10
861.510000000000
20
468.080000000000
30
0.0
11
861.810000000000
21
467.980000000000
31
0.0
0
LINE
5
b95
100
AcDbEntity
8
1-0
6
CONTINUOUS
62
7
100
AcDbLine
10
861.810000000000
20
467.980000000000
30
0.0
11
862.110000000000
21
467.890000000000
31
0.0
0
LINE
5
b96
100
AcDbEntity
8
1-0
6
CONTINUOUS
62
7
100
AcDbLine
10
862.110000000000
20
467.890000000000
30
0.0
11
862.410000000000
21
467.800000000000
31
0.0
0
LINE
5
b97
100
AcDbEntity
8
1-0
6
CONTINUOUS
62
7
100
AcDbLine
10
862.410000000000
20
467.800000000000
30
0.0
11
862.720000000000
21
467.710000000000
31
0.0
0
LINE
5
b98
100
AcDbEntity
8
1-0
6
CONTINUOUS
62
7
100
AcDbLine
10
862.720000000000
20
467.710000000000
30
0.0
11
863.040000000000
21
467.620000000000
31
0.0
0
LINE
5
b99
100
AcDbEntity
8
1-0
6
CONTINUOUS
62
7
100
AcDbLine
10
863.040000000000
20
467.620000000000
30
0.0
11
863.360000000000
21
467.530000000000
31
0.0
0
LINE
5
b9a
100
AcDbEntity
8
1-0
6
CONTINUOUS
62
7
100
AcDbLine
10
863.360000000000
20
467.530000000000
30
0.0
11
863.680000000000
21
467.450000000000
31
0.0
0
LINE
5
b9b
100
AcDbEntity
8
1-0
6
CONTINUOUS
62
7
100
AcDbLine
10
863.680000000000
20
467.450000000000
30
0.0
11
864.010000000000
21
467.360000000000
31
0.0
0
LINE
5
b9c
100
AcDbEntity
8
1-0
6
CONTINUOUS
62
7
100
AcDbLine
10
892.460000000000
20
182.660000000000
30
0.0
11
895.530000000000
21
182.570000000000
31
0.0
0
LINE
5
b9d
100
AcDbEntity
8
1-0
6
CONTINUOUS
62
7
100
AcDbLine
10
889.560000000000
20
182.740000000000
30
0.0
11
892.460000000000
21
182.660000000000
31
0.0
0
LINE
5
b9e
100
AcDbEntity
8
1-0
6
CONTINUOUS
62
7
100
AcDbLine
10
886.690000000000
20
182.820000000000
30
0.0
11
889.560000000000
21
182.740000000000
31
0.0
0
LINE
5
b9f
100
AcDbEntity
8
1-0
6
CONTINUOUS
62
7
100
AcDbLine
10
884.240000000000
20
182.890000000000
30
0.0
11
886.690000000000
21
182.820000000000
31
0.0
0
LINE
5
ba0
100
AcDbEntity
8
1-0
6
CONTINUOUS
62
7
100
AcDbLine
10
881.990000000000
20
182.950000000000
30
0.0
11
884.240000000000
21
182.890000000000
31
0.0
0
LINE
5
ba1
100
AcDbEntity
8
1-0
6
CONTINUOUS
62
7
100
AcDbLine
10
879.880000000000
20
183.010000000000
30
0.0
11
881.990000000000
21
182.950000000000
31
0.0
0
LINE
5
ba2
100
AcDbEntity
8
1-0
6
CONTINUOUS
62
7
100
AcDbLine
10
877.930000000000
20
183.070000000000
30
0.0
11
879.880000000000
21
183.010000000000
31
0.0
0
LINE
5
ba3
100
AcDbEntity
8
1-0
6
CONTINUOUS
62
7
100
AcDbLine
10
876.120000000000
20
183.130000000000
30
0.0
11
877.930000000000
21
183.070000000000
31
0.0
0
LINE
5
ba4
100
AcDbEntity
8
1-0
6
CONTINUOUS
62
7
100
AcDbLine
10
874.450000000000
20
183.190000000000
30
0.0
11
876.120000000000
21
183.130000000000
31
0.0
0
LINE
5
ba5
100
AcDbEntity
8
1-0
6
CONTINUOUS
62
7
100
AcDbLine
10
872.900000000000
20
183.240000000000
30
0.0
11
874.450000000000
21
183.190000000000
31
0.0
0
LINE
5
ba6
100
AcDbEntity
8
1-0
6
CONTINUOUS
62
7
100
AcDbLine
10
871.480000000000
20
183.290000000000
30
0.0
11
872.900000000000
21
183.240000000000
31
0.0
0
LINE
5
ba7
100
AcDbEntity
8
1-0
6
CONTINUOUS
62
7
100
AcDbLine
10
870.140000000000
20
183.340000000000
30
0.0
11
871.480000000000
21
183.290000000000
31
0.0
0
LINE
5
ba8
100
AcDbEntity
8
1-0
6
CONTINUOUS
62
7
100
AcDbLine
10
868.940000000000
20
183.390000000000
30
0.0
11
870.140000000000
21
183.340000000000
31
0.0
0
LINE
5
ba9
100
AcDbEntity
8
1-0
6
CONTINUOUS
62
7
100
AcDbLine
10
867.820000000000
20
183.440000000000
30
0.0
11
868.940000000000
21
183.390000000000
31
0.0
0
LINE
5
baa
100
AcDbEntity
8
1-0
6
CONTINUOUS
62
7
100
AcDbLine
10
866.810000000000
20
183.490000000000
30
0.0
11
867.820000000000
21
183.440000000000
31
0.0
0
LINE
5
bab
100
AcDbEntity
8
1-0
6
CONTINUOUS
62
7
100
AcDbLine
10
865.870000000000
20
183.540000000000
30
0.0
11
866.810000000000
21
183.490000000000
31
0.0
0
LINE
5
bac
100
AcDbEntity
8
1-0
6
CONTINUOUS
62
7
100
AcDbLine
10
865.010000000000
20
183.590000000000
30
0.0
11
865.870000000000
21
183.540000000000
31
0.0
0
LINE
5
bad
100
AcDbEntity
8
1-0
6
CONTINUOUS
62
7
100
AcDbLine
10
864.230000000000
20
183.640000000000
30
0.0
11
865.010000000000
21
183.590000000000
31
0.0
0
LINE
5
bae
100
AcDbEntity
8
1-0
6
CONTINUOUS
62
7
100
AcDbLine
10
863.520000000000
20
183.690000000000
30
0.0
11
864.230000000000
21
183.640000000000
31
0.0
0
LINE
5
baf
100
AcDbEntity
8
1-0
6
CONTINUOUS
62
7
100
AcDbLine
10
862.870000000000
20
183.740000000000
30
0.0
11
863.520000000000
21
183.690000000000
31
0.0
0
LINE
5
bb0
100
AcDbEntity
8
1-0
6
CONTINUOUS
62
7
100
AcDbLine
10
862.270000000000
20
183.790000000000
30
0.0
11
862.870000000000
21
183.740000000000
31
0.0
0
LINE
5
bb1
100
AcDbEntity
8
1-0
6
CONTINUOUS
62
7
100
AcDbLine
10
861.730000000000
20
183.840000000000
30
0.0
11
862.270000000000
21
183.790000000000
31
0.0
0
LINE
5
bb2
100
AcDbEntity
8
1-0
6
CONTINUOUS
62
7
100
AcDbLine
10
861.220000000000
20
183.890000000000
30
0.0
11
861.730000000000
21
183.840000000000
31
0.0
0
LINE
5
bb3
100
AcDbEntity
8
1-0
6
CONTINUOUS
62
7
100
AcDbLine
10
860.760000000000
20
183.940000000000
30
0.0
11
861.220000000000
21
183.890000000000
31
0.0
0
LINE
5
bb4
100
AcDbEntity
8
1-0
6
CONTINUOUS
62
7
100
AcDbLine
10
860.330000000000
20
183.990000000000
30
0.0
11
860.760000000000
21
183.940000000000
31
0.0
0
LINE
5
bb5
100
AcDbEntity
8
1-0
6
CONTINUOUS
62
7
100
AcDbLine
10
860.270000000000
20
211.190000000000
30
0.0
11
860.260000000000
21
211.190000000000
31
0.0
0
LINE
5
bb6
100
AcDbEntity
8
1-0
6
CONTINUOUS
62
7
100
AcDbLine
10
860.260000000000
20
211.190000000000
30
0.0
11
860.240000000000
21
211.210000000000
31
0.0
0
LINE
5
bb7
100
AcDbEntity
8
1-0
6
CONTINUOUS
62
7
100
AcDbLine
10
860.240000000000
20
211.210000000000
30
0.0
11
860.220000000000
21
211.220000000000
31
0.0
0
LINE
5
bb8
100
AcDbEntity
8
1-0
6
CONTINUOUS
62
7
100
AcDbLine
10
860.220000000000
20
211.220000000000
30
0.0
11
860.200000000000
21
211.230000000000
31
0.0
0
LINE
5
bb9
100
AcDbEntity
8
1-0
6
CONTINUOUS
62
7
100
AcDbLine
10
860.200000000000
20
211.230000000000
30
0.0
11
860.190000000000
21
211.230000000000
31
0.0
0
LINE
5
bba
100
AcDbEntity
8
3-0
6
CONTINUOUS
62
7
100
AcDbLine
10
892.650000000000
20
206.660000000000
30
0.0
11
895.780000000000
21
206.570000000000
31
0.0
0
LINE
5
bbb
100
AcDbEntity
8
3-0
6
CONTINUOUS
62
7
100
AcDbLine
10
890.000000000000
20
206.730000000000
30
0.0
11
892.650000000000
21
206.660000000000
31
0.0
0
LINE
5
bbc
100
AcDbEntity
8
3-0
6
CONTINUOUS
62
7
100
AcDbLine
10
886.900000000000
20
206.820000000000
30
0.0
11
890.000000000000
21
206.730000000000
31
0.0
0
LINE
5
bbd
100
AcDbEntity
8
3-0
6
CONTINUOUS
62
7
100
AcDbLine
10
884.530000000000
20
206.880000000000
30
0.0
11
886.900000000000
21
206.820000000000
31
0.0
0
LINE
5
bbe
100
AcDbEntity
8
3-0
6
CONTINUOUS
62
7
100
AcDbLine
10
882.230000000000
20
206.950000000000
30
0.0
11
884.530000000000
21
206.880000000000
31
0.0
0
LINE
5
bbf
100
AcDbEntity
8
3-0
6
CONTINUOUS
62
7
100
AcDbLine
10
880.150000000000
20
207.010000000000
30
0.0
11
882.230000000000
21
206.950000000000
31
0.0
0
LINE
5
bc0
100
AcDbEntity
8
3-0
6
CONTINUOUS
62
7
100
AcDbLine
10
878.190000000000
20
207.070000000000
30
0.0
11
880.150000000000
21
207.010000000000
31
0.0
0
LINE
5
bc1
100
AcDbEntity
8
3-0
6
CONTINUOUS
62
7
100
AcDbLine
10
876.420000000000
20
207.130000000000
30
0.0
11
878.190000000000
21
207.070000000000
31
0.0
0
LINE
5
bc2
100
AcDbEntity
8
3-0
6
CONTINUOUS
62
7
100
AcDbLine
10
874.740000000000
20
207.180000000000
30
0.0
11
876.420000000000
21
207.130000000000
31
0.0
0
LINE
5
bc3
100
AcDbEntity
8
3-0
6
CONTINUOUS
62
7
100
AcDbLine
10
873.220000000000
20
207.230000000000
30
0.0
11
874.740000000000
21
207.180000000000
31
0.0
0
LINE
5
bc4
100
AcDbEntity
8
3-0
6
CONTINUOUS
62
7
100
AcDbLine
10
871.810000000000
20
207.290000000000
30
0.0
11
873.220000000000
21
207.230000000000
31
0.0
0
LINE
5
bc5
100
AcDbEntity
8
3-0
6
CONTINUOUS
62
7
100
AcDbLine
10
870.510000000000
20
207.340000000000
30
0.0
11
871.810000000000
21
207.290000000000
31
0.0
0
LINE
5
bc6
100
AcDbEntity
8
3-0
6
CONTINUOUS
62
7
100
AcDbLine
10
869.330000000000
20
207.380000000000
30
0.0
11
870.510000000000
21
207.340000000000
31
0.0
0
LINE
5
bc7
100
AcDbEntity
8
3-0
6
CONTINUOUS
62
7
100
AcDbLine
10
868.230000000000
20
207.430000000000
30
0.0
11
869.330000000000
21
207.380000000000
31
0.0
0
LINE
5
bc8
100
AcDbEntity
8
3-0
6
CONTINUOUS
62
7
100
AcDbLine
10
867.250000000000
20
207.480000000000
30
0.0
11
868.230000000000
21
207.430000000000
31
0.0
0
LINE
5
bc9
100
AcDbEntity
8
3-0
6
CONTINUOUS
62
7
100
AcDbLine
10
866.730000000000
20
207.510000000000
30
0.0
11
867.250000000000
21
207.480000000000
31
0.0
0
LINE
5
bca
100
AcDbEntity
8
3-0
6
CONTINUOUS
62
7
100
AcDbLine
10
892.650000000000
20
191.660000000000
30
0.0
11
895.780000000000
21
191.570000000000
31
0.0
0
LINE
5
bcb
100
AcDbEntity
8
3-0
6
CONTINUOUS
62
7
100
AcDbLine
10
890.000000000000
20
191.730000000000
30
0.0
11
892.650000000000
21
191.660000000000
31
0.0
0
LINE
5
bcc
100
AcDbEntity
8
3-0
6
CONTINUOUS
62
7
100
AcDbLine
10
886.900000000000
20
191.820000000000
30
0.0
11
890.000000000000
21
191.730000000000
31
0.0
0
LINE
5
bcd
100
AcDbEntity
8
3-0
6
CONTINUOUS
62
7
100
AcDbLine
10
884.530000000000
20
191.880000000000
30
0.0
11
886.900000000000
21
191.820000000000
31
0.0
0
LINE
5
bce
100
AcDbEntity
8
3-0
6
CONTINUOUS
62
7
100
AcDbLine
10
882.230000000000
20
191.950000000000
30
0.0
11
884.530000000000
21
191.880000000000
31
0.0
0
LINE
5
bcf
100
AcDbEntity
8
3-0
6
CONTINUOUS
62
7
100
AcDbLine
10
880.150000000000
20
192.010000000000
30
0.0
11
882.230000000000
21
191.950000000000
31
0.0
0
LINE
5
bd0
100
AcDbEntity
8
3-0
6
CONTINUOUS
62
7
100
AcDbLine
10
878.190000000000
20
192.070000000000
30
0.0
11
880.150000000000
21
192.010000000000
31
0.0
0
LINE
5
bd1
100
AcDbEntity
8
3-0
6
CONTINUOUS
62
7
100
AcDbLine
10
876.420000000000
20
192.130000000000
30
0.0
11
878.190000000000
21
192.070000000000
31
0.0
0
LINE
5
bd2
100
AcDbEntity
8
3-0
6
CONTINUOUS
62
7
100
AcDbLine
10
874.740000000000
20
192.180000000000
30
0.0
11
876.420000000000
21
192.130000000000
31
0.0
0
LINE
5
bd3
100
AcDbEntity
8
3-0
6
CONTINUOUS
62
7
100
AcDbLine
10
873.220000000000
20
192.230000000000
30
0.0
11
874.740000000000
21
192.180000000000
31
0.0
0
LINE
5
bd4
100
AcDbEntity
8
3-0
6
CONTINUOUS
62
7
100
AcDbLine
10
871.810000000000
20
192.290000000000
30
0.0
11
873.220000000000
21
192.230000000000
31
0.0
0
LINE
5
bd5
100
AcDbEntity
8
3-0
6
CONTINUOUS
62
7
100
AcDbLine
10
870.510000000000
20
192.340000000000
30
0.0
11
871.810000000000
21
192.290000000000
31
0.0
0
LINE
5
bd6
100
AcDbEntity
8
3-0
6
CONTINUOUS
62
7
100
AcDbLine
10
869.330000000000
20
192.380000000000
30
0.0
11
870.510000000000
21
192.340000000000
31
0.0
0
LINE
5
bd7
100
AcDbEntity
8
3-0
6
CONTINUOUS
62
7
100
AcDbLine
10
868.230000000000
20
192.430000000000
30
0.0
11
869.330000000000
21
192.380000000000
31
0.0
0
LINE
5
bd8
100
AcDbEntity
8
3-0
6
CONTINUOUS
62
7
100
AcDbLine
10
867.250000000000
20
192.480000000000
30
0.0
11
868.230000000000
21
192.430000000000
31
0.0
0
LINE
5
bd9
100
AcDbEntity
8
3-0
6
CONTINUOUS
62
7
100
AcDbLine
10
866.670000000000
20
192.510000000000
30
0.0
11
867.250000000000
21
192.480000000000
31
0.0
0
ARC
5
bda
100
AcDbEntity
8
5-0
6
CONTINUOUS
62
7
100
AcDbCircle
10
541.430000000000
20
547.800000000000
30
0.0
40
75.167056633451
100
AcDbArc
50
250.249343872070
51
268.512924194336
0
ARC
5
bdb
100
AcDbEntity
8
1-0
6
CONTINUOUS
62
7
100
AcDbCircle
10
1004.420000000000
20
1069.640000000000
30
0.0
40
2.999999949610
100
AcDbArc
50
180.000000000000
51
270.000000000000
0
ARC
5
bdc
100
AcDbEntity
8
1-0
6
CONTINUOUS
62
7
100
AcDbCircle
10
1006.420000000000
20
1071.640000000000
30
0.0
40
2.999999949610
100
AcDbArc
50
180.000000000000
51
270.000000000000
0
ARC
5
bdd
100
AcDbEntity
8
1-0
6
CONTINUOUS
62
7
100
AcDbCircle
10
1028.420000000000
20
1071.640000000000
30
0.0
40
2.999999949610
100
AcDbArc
50
270.000000000000
51
0.000000000000
0
ARC
5
bde
100
AcDbEntity
8
1-0
6
CONTINUOUS
62
7
100
AcDbCircle
10
1030.420000000000
20
1069.640000000000
30
0.0
40
2.999999949610
100
AcDbArc
50
270.000000000000
51
0.000000000000
0
ARC
5
bdf
100
AcDbEntity
8
1-0
6
CONTINUOUS
62
7
100
AcDbCircle
10
1093.420000000000
20
1057.760000000000
30
0.0
40
2.000000006680
100
AcDbArc
50
180.000000000000
51
273.340652465820
0
ARC
5
be0
100
AcDbEntity
8
1-0
6
CONTINUOUS
62
7
100
AcDbCircle
10
1092.420000000000
20
1056.700000000000
30
0.0
40
2.000000006680
100
AcDbArc
50
180.000000000000
51
273.340652465820
0
ARC
5
be1
100
AcDbEntity
8
1-0
6
CONTINUOUS
62
7
100
AcDbCircle
10
946.920000000000
20
1247.140000000000
30
0.0
40
169.502411262016
100
AcDbArc
50
262.371963500977
51
277.628036499023
0
CIRCLE
5
be2
100
AcDbEntity
8
1-0
6
CONTINUOUS
62
7
100
AcDbCircle
10
946.920000000000
20
1064.640000000000
30
0.0
40
2.999999949610
0
ARC
5
be3
100
AcDbEntity
8
1-0
6
CONTINUOUS
62
7
100
AcDbCircle
10
1414.580000000000
20
765.600000000000
30
0.0
40
33.389651218335
100
AcDbArc
50
185.077636718750
51
236.849945068359
0
ARC
5
be4
100
AcDbEntity
8
1-0
6
CONTINUOUS
62
7
100
AcDbCircle
10
1405.320000000000
20
760.670000000000
30
0.0
40
9.999999670939
100
AcDbArc
50
180.000000000000
51
213.689865112305
0
ARC
5
be5
100
AcDbEntity
8
1-0
6
CONTINUOUS
62
7
100
AcDbCircle
10
1097.200000000000
20
155.720000000000
30
0.0
40
66.029281366136
100
AcDbArc
50
57.770812988281
51
146.070556640625
0
ARC
5
be6
100
AcDbEntity
8
1-0
6
CONTINUOUS
62
7
100
AcDbCircle
10
1041.480000000000
20
187.120000000000
30
0.0
40
3.362150862659
100
AcDbArc
50
268.884597778320
51
317.383407592773
0
ARC
5
be7
100
AcDbEntity
8
1-0
6
CONTINUOUS
62
7
100
AcDbCircle
10
1097.230000000000
20
137.400000000000
30
0.0
40
71.334816720482
100
AcDbArc
50
68.460311889648
51
138.317230224609
0
ARC
5
be8
100
AcDbEntity
8
1-0
6
CONTINUOUS
62
7
100
AcDbCircle
10
900.420000000000
20
1071.140000000000
30
0.0
40
2.999999949610
100
AcDbArc
50
270.000000000000
51
0.000000000000
0
ARC
5
be9
100
AcDbEntity
8
1-0
6
CONTINUOUS
62
7
100
AcDbCircle
10
875.420000000000
20
1071.140000000000
30
0.0
40
2.999999949610
100
AcDbArc
50
180.000000000000
51
270.000000000000
0
ARC
5
bea
100
AcDbEntity
8
1-0
6
CONTINUOUS
62
7
100
AcDbCircle
10
902.420000000000
20
1069.640000000000
30
0.0
40
2.999999949610
100
AcDbArc
50
270.000000000000
51
0.000000000000
0
ARC
5
beb
100
AcDbEntity
8
1-0
6
CONTINUOUS
62
7
100
AcDbCircle
10
873.420000000000
20
1069.640000000000
30
0.0
40
2.999999949610
100
AcDbArc
50
180.000000000000
51
270.000000000000
0
CIRCLE
5
bec
100
AcDbEntity
8
6-0
6
HIDDEN
62
3
100
AcDbCircle
10
860.420000000000
20
483.190000000000
30
0.0
40
2.999999949610
0
ARC
5
bed
100
AcDbEntity
8
1-0
6
CONTINUOUS
62
7
100
AcDbCircle
10
876.980000000000
20
513.000000000000
30
0.0
40
47.438964163623
100
AcDbArc
50
254.136306762695
51
262.835067749023
0
ARC
5
bee
100
AcDbEntity
8
1-0
6
CONTINUOUS
62
7
100
AcDbCircle
10
853.890000000000
20
561.560000000000
30
0.0
40
88.362852930877
100
AcDbArc
50
247.037811279297
51
270.342086791992
0
ARC
5
bef
100
AcDbEntity
8
1-0
6
CONTINUOUS
62
7
100
AcDbCircle
10
856.320000000000
20
574.680000000000
30
0.0
40
90.871668617663
100
AcDbArc
50
252.115631103516
51
270.317245483398
0
ARC
5
bf0
100
AcDbEntity
8
1-0
6
CONTINUOUS
62
7
100
AcDbCircle
10
879.420000000000
20
537.960000000000
30
0.0
40
59.367516676204
100
AcDbArc
50
248.014434814453
51
264.880966186523
0
CIRCLE
5
bf1
100
AcDbEntity
8
6-0
6
HIDDEN
62
3
100
AcDbCircle
10
860.430000000000
20
211.570000000000
30
0.0
40
2.999999949610
0
ARC
5
bf2
100
AcDbEntity
8
3-0
6
CONTINUOUS
62
7
100
AcDbCircle
10
861.830000000000
20
287.320000000000
30
0.0
40
75.167056633451
100
AcDbArc
50
262.046356201172
51
268.512924194336
0
ARC
5
bf3
100
AcDbEntity
8
1-0
6
CONTINUOUS
62
7
100
AcDbCircle
10
874.320000000000
20
228.360000000000
30
0.0
40
22.187734778734
100
AcDbArc
50
230.695663452148
51
249.991043090820
0
ARC
5
bf4
100
AcDbEntity
8
1-0
6
CONTINUOUS
62
7
100
AcDbCircle
10
874.320000000000
20
213.340000000000
30
0.0
40
22.187734778734
100
AcDbArc
50
231.185775756836
51
249.991043090820
0
CIRCLE
5
bf5
100
AcDbEntity
8
6-0
6
HIDDEN
62
7
100
AcDbCircle
10
946.920000000000
20
854.040000000000
30
0.0
40
2.999999949610
0
ARC
5
bf6
100
AcDbEntity
8
4-0
6
CONTINUOUS
62
7
100
AcDbCircle
10
908.000000000000
20
468.710000000000
30
0.0
40
29.466558357119
100
AcDbArc
50
69.165924072266
51
160.324920654297
0
ARC
5
bf7
100
AcDbEntity
8
4-0
6
CONTINUOUS
62
7
100
AcDbCircle
10
908.000000000000
20
468.710000000000
30
0.0
40
39.466560927744
100
AcDbArc
50
59.268875122070
51
164.370208740234
0
ARC
5
bf8
100
AcDbEntity
8
4-0
6
CONTINUOUS
62
7
100
AcDbCircle
10
1021.670000000000
20
476.100000000000
30
0.0
40
22.064337692784
100
AcDbArc
50
9.333740234375
51
168.844512939453
0
ARC
5
bf9
100
AcDbEntity
8
4-0
6
CONTINUOUS
62
7
100
AcDbCircle
10
1021.670000000000
20
476.100000000000
30
0.0
40
32.064338330285
100
AcDbArc
50
16.199172973633
51
162.029953002930
0
ARC
5
bfa
100
AcDbEntity
8
4-0
6
CONTINUOUS
62
7
100
AcDbCircle
10
908.000000000000
20
196.580000000000
30
0.0
40
29.466558357119
100
AcDbArc
50
69.165924072266
51
159.288665771484
0
ARC
5
bfb
100
AcDbEntity
8
4-0
6
CONTINUOUS
62
7
100
AcDbCircle
10
908.000000000000
20
196.580000000000
30
0.0
40
39.466560927744
100
AcDbArc
50
60.054580688477
51
164.370208740234
0
ARC
5
bfc
100
AcDbEntity
8
4-0
6
CONTINUOUS
62
7
100
AcDbCircle
10
1021.670000000000
20
203.970000000000
30
0.0
40
22.064337692784
100
AcDbArc
50
10.558792114258
51
167.521270751953
0
ARC
5
bfd
100
AcDbEntity
8
4-0
6
CONTINUOUS
62
7
100
AcDbCircle
10
1021.670000000000
20
203.970000000000
30
0.0
40
32.064338330285
100
AcDbArc
50
16.980331420898
51
161.331848144531
0
TEXT
5
bfe
100
AcDbEntity
8
5-0
62
7
100
AcDbText
10
1370.412
20
1409.257
30
0.0
40
12.188
1
37
41
1.000
50
0.000
100
AcDbText
0
TEXT
5
bff
100
AcDbEntity
8
3-0
62
7
100
AcDbText
10
966.542
20
1246.073
30
0.0
40
12.188
1
313
41
1.000
50
0.000
100
AcDbText
0
TEXT
5
c00
100
AcDbEntity
8
1-0
62
7
100
AcDbText
10
1387.072
20
1246.073
30
0.0
40
12.188
1
32
41
1.000
50
0.000
100
AcDbText
0
TEXT
5
c01
100
AcDbEntity
8
1-0
62
7
100
AcDbText
10
1387.072
20
629.857
30
0.0
40
12.188
1
24
41
1.000
50
0.000
100
AcDbText
0
TEXT
5
c02
100
AcDbEntity
8
1-0
62
7
100
AcDbText
10
527.471
20
901.766
30
0.0
40
12.188
1
347
41
1.000
50
90.000
100
AcDbText
0
TEXT
5
c03
100
AcDbEntity
8
1-0
62
7
100
AcDbText
10
527.471
20
480.449
30
0.0
40
12.188
1
43
41
1.000
50
90.000
100
AcDbText
0
TEXT
5
c04
100
AcDbEntity
8
1-0
62
7
100
AcDbText
10
1245.038
20
1054.391
30
0.0
40
12.188
1
48
41
1.000
50
90.000
100
AcDbText
0
TEXT
5
c05
100
AcDbEntity
8
1-0
62
7
100
AcDbText
10
1245.038
20
877.766
30
0.0
40
12.188
1
299
41
1.000
50
90.000
100
AcDbText
0
TEXT
5
c06
100
AcDbEntity
8
1-0
62
7
100
AcDbText
10
1382.072
20
933.911
30
0.0
40
12.188
1
14
41
1.000
50
0.000
100
AcDbText
0
TEXT
5
c07
100
AcDbEntity
8
3-0
62
7
100
AcDbText
10
833.667
20
1214.291
30
0.0
40
12.188
1
41
41
1.000
50
0.000
100
AcDbText
0
TEXT
5
c08
100
AcDbEntity
8
3-0
62
7
100
AcDbText
10
987.042
20
1214.291
30
0.0
40
12.188
1
272
41
1.000
50
0.000
100
AcDbText
0
TEXT
5
c09
100
AcDbEntity
8
3-0
62
7
100
AcDbText
10
987.042
20
629.857
30
0.0
40
12.188
1
272
41
1.000
50
0.000
100
AcDbText
0
TEXT
5
c0a
100
AcDbEntity
8
3-0
62
7
100
AcDbText
10
833.667
20
629.857
30
0.0
40
12.188
1
41
41
1.000
50
0.000
100
AcDbText
0
TEXT
5
c0b
100
AcDbEntity
8
3-0
62
7
100
AcDbText
10
833.667
20
356.420
30
0.0
40
12.188
1
41
41
1.000
50
0.000
100
AcDbText
0
TEXT
5
c0c
100
AcDbEntity
8
3-0
62
7
100
AcDbText
10
987.042
20
356.420
30
0.0
40
12.188
1
272
41
1.000
50
0.000
100
AcDbText
0
TEXT
5
c0d
100
AcDbEntity
8
3-0
62
7
100
AcDbText
10
575.825
20
741.391
30
0.0
40
12.188
1
20
41
1.000
50
90.000
100
AcDbText
0
TEXT
5
c0e
100
AcDbEntity
8
3-0
62
7
100
AcDbText
10
575.825
20
911.766
30
0.0
40
12.188
1
327
41
1.000
50
90.000
100
AcDbText
0
POINT
5
c0f
100
AcDbEntity
8
5-0
62
7
100
AcDbPoint
10
1358.160000000000
20
1406.760000000000
30
0.0
0
POINT
5
c10
100
AcDbEntity
8
5-0
62
7
100
AcDbPoint
10
1395.160000000000
20
1406.760000000000
30
0.0
0
POINT
5
c11
100
AcDbEntity
8
3-0
62
7
100
AcDbPoint
10
819.420000000000
20
1243.570000000000
30
0.0
0
POINT
5
c12
100
AcDbEntity
8
3-0
62
7
100
AcDbPoint
10
1132.420000000000
20
1243.570000000000
30
0.0
0
POINT
5
c13
100
AcDbEntity
8
1-0
62
7
100
AcDbPoint
10
1377.320000000000
20
1243.570000000000
30
0.0
0
POINT
5
c14
100
AcDbEntity
8
1-0
62
7
100
AcDbPoint
10
1409.320000000000
20
1243.570000000000
30
0.0
0
POINT
5
c15
100
AcDbEntity
8
1-0
62
7
100
AcDbPoint
10
1381.320000000000
20
627.360000000000
30
0.0
0
POINT
5
c16
100
AcDbEntity
8
1-0
62
7
100
AcDbPoint
10
1405.320000000000
20
627.360000000000
30
0.0
0
POINT
5
c17
100
AcDbEntity
8
1-0
62
7
100
AcDbPoint
10
529.970000000000
20
1084.640000000000
30
0.0
0
POINT
5
c18
100
AcDbEntity
8
1-0
62
7
100
AcDbPoint
10
529.970000000000
20
737.640000000000
30
0.0
0
POINT
5
c19
100
AcDbEntity
8
1-0
62
7
100
AcDbPoint
10
529.970000000000
20
508.200000000000
30
0.0
0
POINT
5
c1a
100
AcDbEntity
8
1-0
62
7
100
AcDbPoint
10
529.970000000000
20
465.190000000000
30
0.0
0
POINT
5
c1b
100
AcDbEntity
8
1-0
62
7
100
AcDbPoint
10
1247.540000000000
20
1084.640000000000
30
0.0
0
POINT
5
c1c
100
AcDbEntity
8
1-0
62
7
100
AcDbPoint
10
1247.540000000000
20
1036.640000000000
30
0.0
0
POINT
5
c1d
100
AcDbEntity
8
1-0
62
7
100
AcDbPoint
10
1247.540000000000
20
737.640000000000
30
0.0
0
POINT
5
c1e
100
AcDbEntity
8
1-0
62
7
100
AcDbPoint
10
1381.320000000000
20
931.410000000000
30
0.0
0
POINT
5
c1f
100
AcDbEntity
8
1-0
62
7
100
AcDbPoint
10
1395.320000000000
20
931.410000000000
30
0.0
0
POINT
5
c20
100
AcDbEntity
8
3-0
62
7
100
AcDbPoint
10
819.420000000000
20
1211.790000000000
30
0.0
0
POINT
5
c21
100
AcDbEntity
8
3-0
62
7
100
AcDbPoint
10
860.420000000000
20
1211.790000000000
30
0.0
0
POINT
5
c22
100
AcDbEntity
8
3-0
62
7
100
AcDbPoint
10
1132.420000000000
20
1211.790000000000
30
0.0
0
POINT
5
c23
100
AcDbEntity
8
3-0
62
7
100
AcDbPoint
10
1132.420000000000
20
627.360000000000
30
0.0
0
POINT
5
c24
100
AcDbEntity
8
3-0
62
7
100
AcDbPoint
10
860.420000000000
20
627.360000000000
30
0.0
0
POINT
5
c25
100
AcDbEntity
8
3-0
62
7
100
AcDbPoint
10
819.420000000000
20
627.360000000000
30
0.0
0
POINT
5
c26
100
AcDbEntity
8
3-0
62
7
100
AcDbPoint
10
819.420000000000
20
353.920000000000
30
0.0
0
POINT
5
c27
100
AcDbEntity
8
3-0
62
7
100
AcDbPoint
10
860.420000000000
20
353.920000000000
30
0.0
0
POINT
5
c28
100
AcDbEntity
8
3-0
62
7
100
AcDbPoint
10
1132.420000000000
20
353.920000000000
30
0.0
0
POINT
5
c29
100
AcDbEntity
8
3-0
62
7
100
AcDbPoint
10
578.330000000000
20
737.640000000000
30
0.0
0
POINT
5
c2a
100
AcDbEntity
8
3-0
62
7
100
AcDbPoint
10
578.330000000000
20
757.640000000000
30
0.0
0
POINT
5
c2b
100
AcDbEntity
8
3-0
62
7
100
AcDbPoint
10
578.330000000000
20
1084.640000000000
30
0.0
0
ENDSEC
0
EOF
