  0
SECTION
  2
HEADER
  9
$ACADVER
  1
AC1009
  9
$INSBASE
 10
0
 20
0
 30
0
  9
$EXTMIN
 10
0
 20
0
  9
$EXTMAX
 10
420
 20
297
  9
$LIMMIN
 10
0
 20
0
  9
$LIMMAX
 10
420
 20
297
  9
$LTSCALE
 40
1
  0
ENDSEC
  0
SECTION
  2
TABLES
  0
TABLE
  2
LTYPE
 70
     9
  0
LTYPE
  2
CONTINUOUS
 70
    64
  3
実線
 72
    65
 73
     0
 40
0.0
  0
LTYPE
  2
DASHED1
 70
    64
  3
--  --  --  --  --  --  --  --  
 72
    65
 73
     2
 40
2.5
 49
1.25
 49
-1.25
  0
LTYPE
  2
DASHED2
 70
    64
  3
----    ----    ----    ----    
 72
    65
 73
     2
 40
5.0
 49
2.5
 49
-2.5
  0
LTYPE
  2
DASHED3
 70
    64
  3
------  ------  ------  ------  
 72
    65
 73
     2
 40
5.0
 49
3.75
 49
-1.25
  0
LTYPE
  2
CENTER1
 70
    64
  3
----- - ----- - ----- - ----- - 
 72
    65
 73
     4
 40
10.0
 49
6.25
 49
-1.25
 49
1.25
 49
-1.25
  0
LTYPE
  2
CENTER2
 70
    64
  3
----------  --  ----------  --  
 72
    65
 73
     4
 40
20.0
 49
12.5
 49
-2.5
 49
2.5
 49
-2.5
  0
LTYPE
  2
PHANTOM1
 70
    64
  3
--- - - --- - - --- - - --- - - 
 72
    65
 73
     6
 40
10.0
 49
3.25
 49
-1.25
 49
1.25
 49
-1.25
 49
1.25
 49
-1.25
  0
LTYPE
  2
PHANTOM2
 70
    64
  3
--------  -  -  --------  -  -  
 72
    65
 73
     6
 40
20.0
 49
10.0
 49
-2.5
 49
1.25
 49
-2.5
 49
1.25
 49
-2.5
  0
LTYPE
  2
DOT
 70
    64
  3
-   -   -   -   -   -   -   -   
 72
    65
 73
     2
 40
2.5
 49
0.625
 49
-1.875
  0
LTYPE
  2
DUMMY
 70
    64
  3
ダミー
 72
    65
 73
     0
 40
0.0
  0
LTYPE
  2
RAND1
 70
    64
  3
ランダム線1
 72
    65
 73
     4
 40
10.0
 49
1.0
 49
-2.0
 49
3.0
 49
-4.0
  0
LTYPE
  2
RAND2
 70
    64
  3
ランダム線2
 72
    65
 73
     4
 40
14.0
 49
2.0
 49
-3.0
 49
4.0
 49
-5.0
  0
LTYPE
  2
RAND3
 70
    64
  3
ランダム線3
 72
    65
 73
     4
 40
18.0
 49
3.0
 49
-4.0
 49
5.0
 49
-6.0
  0
LTYPE
  2
RAND4
 70
    64
  3
ランダム線4
 72
    65
 73
     4
 40
22.0
 49
4.0
 49
-5.0
 49
6.0
 49
-7.0
  0
LTYPE
  2
RAND5
 70
    64
  3
ランダム線5
 72
    65
 73
     4
 40
26.0
 49
5.0
 49
-6.0
 49
7.0
 49
-8.0
  0
LTYPE
  2
LONG1
 70
    64
  3
----------  --  ----------  --  
 72
    65
 73
     4
 40
40.0
 49
32.5
 49
-2.5
 49
2.5
 49
-2.5
  0
LTYPE
  2
LONG2
 70
    64
  3
--------  -  -  --------  -  -  
 72
    65
 73
     6
 40
40.0
 49
30.0
 49
-2.5
 49
1.25
 49
-2.5
 49
1.25
 49
-2.5
  0
LTYPE
  2
LONG3
 70
    64
  3
+++++++++++++++..+++++++++++++++
 72
    65
 73
     2
 40
40.0
 49
37.5
 49
-2.5
  0
LTYPE
  2
LONG4
 70
    64
  3
+++++++++++++++..+++++++++++++++
 72
    65
 73
     2
 40
80.0
 49
75.0
 49
-5.0
  0
LTYPE
  2
LONG5
 70
    64
  3
----------  --  ----------  --  
 72
    65
 73
     4
 40
60.0
 49
37.5
 49
-7.5
 49
7.5
 49
-7.5
  0
LTYPE
  2
dashed
 70
   64
  3
-------   -------------   ------
 72
   65
 73
    2
 40
7.5
 49
6
 49
-1.5
  0
LTYPE
  2
dashed_spaced
 70
   64
  3
----        --------        ----
 72
   65
 73
    2
 40
12
 49
6
 49
-6
  0
LTYPE
  2
long_dashed_dotted
 70
   64
  3
------------- --- --------------
 72
   65
 73
    4
 40
15.25
 49
12
 49
-1.5
 49
0.25
 49
-1.5
  0
LTYPE
  2
long_dashed_double-dotted
 70
   64
  3
----------- --- --- ------------
 72
   65
 73
    6
 40
17
 49
12
 49
-1.5
 49
0.25
 49
-1.5
 49
0.25
 49
-1.5
  0
LTYPE
  2
long_dashed_triplicate-dotted
 70
   64
  3
--------- --- --- --- ----------
 72
   65
 73
    8
 40
18.75
 49
12
 49
-1.5
 49
0.25
 49
-1.5
 49
0.25
 49
-1.5
 49
0.25
 49
-1.5
  0
LTYPE
  2
dotted
 70
   64
  3
   -       -       -       -    
 72
   65
 73
    2
 40
1.75
 49
0.25
 49
-1.5
  0
LTYPE
  2
chain
 70
   64
  3
-------------- -- --------------
 72
   65
 73
    4
 40
18.5
 49
12
 49
-1.5
 49
3.5
 49
-1.5
  0
LTYPE
  2
chain_double_dash
 70
   64
  3
------------ -- -- -------------
 72
   65
 73
    6
 40
23.5
 49
12
 49
-1.5
 49
3.5
 49
-1.5
 49
3.5
 49
-1.5
  0
LTYPE
  2
dashed_dotted
 70
   64
  3
-----------     -     ----------
 72
   65
 73
    4
 40
9.25
 49
6
 49
-1.5
 49
0.25
 49
-1.5
  0
LTYPE
  2
double-dashed_dotted
 70
   64
  3
------   -----------   -   -----
 72
   65
 73
    6
 40
16.75
 49
6
 49
-1.5
 49
6
 49
-1.5
 49
0.25
 49
-1.5
  0
LTYPE
  2
dashed_double-dotted
 70
   64
  3
---------    -    -    ---------
 72
   65
 73
    6
 40
11
 49
6
 49
-1.5
 49
0.25
 49
-1.5
 49
0.25
 49
-1.5
  0
LTYPE
  2
double-dashed_double-dotted
 70
   64
  3
-----   ---------   -   -   ----
 72
   65
 73
    8
 40
18.5
 49
6
 49
-1.5
 49
6
 49
-1.5
 49
0.25
 49
-1.5
 49
0.25
 49
-1.5
  0
LTYPE
  2
dashed_triplicate-dotted
 70
   64
  3
-------    -    -    -    ------
 72
   65
 73
    8
 40
12.75
 49
6
 49
-1.5
 49
0.25
 49
-1.5
 49
0.25
 49
-1.5
 49
0.25
 49
-1.5
  0
LTYPE
  2
double-dashed_triplicate-dotted
 70
   64
  3
-----  ---------  -  -  -  -----
 72
   65
 73
   10
 40
20.25
 49
6
 49
-1.5
 49
6
 49
-1.5
 49
0.25
 49
-1.5
 49
0.25
 49
-1.5
 49
0.25
 49
-1.5
  0
LTYPE
  2
undefined
 70
   64
  3
--------------------------------
 72
   65
 73
    0
 40
0
  0
ENDTAB
  0
TABLE
  2
STYLE
  5
3
100
AcDbSymbolTable
 70
     1
  0
STYLE
  5
10
100
AcDbSymbolTableRecord
100
AcDbTextStyleTableRecord
  2
STANDARD
 70
     0
 40
0.0
 41
1.0
 50
0.0
 71
     0
 42
0.2
  3
txt
  4
bigfont.shx
  0
STYLE
  5
26
100
AcDbSymbolTableRecord
100
AcDbTextStyleTableRecord
  2
TATEGAKI
 70
    68
 40
0.0
 41
1.0
 50
0.0
 71
     0
 42
1.0
  3
txt
  4
bigfont.shx
  0
ENDTAB
  0
TABLE
  2
LAYER
 70
    7
  0
LAYER
  2
_0-0_
 70
   64
 62
    7
  6
CONTINUOUS
  0
LAYER
  2
_0-1_
 70
   64
 62
    7
  6
CONTINUOUS
  0
LAYER
  2
_1-0_
 70
   64
 62
    7
  6
CONTINUOUS
  0
LAYER
  2
_1-1_
 70
   64
 62
    7
  6
CONTINUOUS
  0
LAYER
  2
_1-2_
 70
   64
 62
    7
  6
CONTINUOUS
  0
LAYER
  2
_1-3_
 70
   64
 62
    7
  6
CONTINUOUS
  0
LAYER
  2
ADD_LINE
 70
   64
 62
    7
  6
CONTINUOUS
  0
ENDTAB
  0
ENDSEC
  0
SECTION
  2
BLOCKS
  0
ENDSEC
  0
SECTION
  2
ENTITIES
  0
LINE
  8
_0-0_
  6
CONTINUOUS
 62
    5
 10
12.432428308435391
 20
278.51351351351354
 11
412.43244892842063
 21
278.51351351351354
  0
LINE
  8
_0-0_
  6
CONTINUOUS
 62
    5
 10
412.43244892842063
 20
8.5135135135135158
 11
12.432428308435391
 21
8.5135135135135158
  0
LINE
  8
_0-0_
  6
CONTINUOUS
 62
    5
 10
412.43244892842063
 20
28.513511451515001
 11
12.432415936444272
 21
28.513511451515001
  0
LINE
  8
_0-0_
  6
CONTINUOUS
 62
    5
 10
377.43248192039698
 20
8.5135135135135158
 11
377.43248192039698
 21
28.513511451515001
  0
LINE
  8
_0-0_
  6
CONTINUOUS
 62
    5
 10
142.70271507469386
 20
28.513511451515001
 11
142.70271507469386
 21
8.5135135135135158
  0
LINE
  8
_0-0_
  6
CONTINUOUS
 62
    5
 10
220.54054054054055
 20
28.513511451515001
 11
220.54054054054055
 21
8.5135135135135158
  0
LINE
  8
_0-0_
  6
CONTINUOUS
 62
    5
 10
142.70271507469386
 20
18.513512482514244
 11
220.54054054054055
 21
18.513512482514244
  0
LINE
  8
_0-0_
  6
CONTINUOUS
 62
    5
 10
402.16218690614443
 20
24.324325870823216
 11
389.59456985061234
 21
11.756758303255651
  0
LINE
  8
_1-0_
  6
CONTINUOUS
 62
    7
 10
342.72785908467063
 20
167.05945401578336
 11
330.72786898226354
 21
167.05945401578336
  0
LINE
  8
_1-0_
  6
CONTINUOUS
 62
    7
 10
282.12786700274495
 20
155.05945154138513
 11
282.12786700274495
 21
167.05945401578336
  0
LINE
  8
_1-0_
  6
CONTINUOUS
 62
    7
 10
282.12786700274495
 20
167.05945401578336
 11
270.12787690033787
 21
167.05945401578336
  0
LINE
  8
_1-0_
  6
CONTINUOUS
 62
    7
 10
270.12787690033787
 20
167.05945401578336
 11
270.12787690033787
 21
155.05945154138513
  0
LINE
  8
_1-0_
  6
CONTINUOUS
 62
    7
 10
270.12787690033787
 20
155.05945154138513
 11
282.12786700274495
 21
155.05945154138513
  0
LINE
  8
_1-0_
  6
CONTINUOUS
 62
    7
 10
270.12787690033787
 20
167.05945401578336
 11
282.12786700274495
 21
155.05945154138513
  0
LINE
  8
_1-0_
  6
CONTINUOUS
 62
    7
 10
221.52787492081927
 20
155.05945154138513
 11
221.52787492081927
 21
167.05945401578336
  0
LINE
  8
_1-0_
  6
CONTINUOUS
 62
    7
 10
221.52787492081927
 20
167.05945401578336
 11
209.52788481841216
 21
167.05945401578336
  0
LINE
  8
_1-0_
  6
CONTINUOUS
 62
    7
 10
209.52788481841216
 20
167.05945401578336
 11
209.52788481841216
 21
155.05945154138513
  0
LINE
  8
_1-0_
  6
CONTINUOUS
 62
    7
 10
209.52788481841216
 20
155.05945154138513
 11
221.52787492081927
 21
155.05945154138513
  0
LINE
  8
_1-0_
  6
CONTINUOUS
 62
    7
 10
209.52788481841216
 20
167.05945401578336
 11
221.52787492081927
 21
155.05945154138513
  0
LINE
  8
_1-0_
  6
CONTINUOUS
 62
    7
 10
160.92789521088471
 20
155.05945154138513
 11
160.92789521088471
 21
167.05945401578336
  0
LINE
  8
_1-0_
  6
CONTINUOUS
 62
    7
 10
160.92789521088471
 20
167.05945401578336
 11
148.92790510847763
 21
167.05945401578336
  0
LINE
  8
_1-0_
  6
CONTINUOUS
 62
    7
 10
148.92790510847763
 20
167.05945401578336
 11
148.92790510847763
 21
155.05945154138513
  0
LINE
  8
_1-0_
  6
CONTINUOUS
 62
    7
 10
148.92790510847763
 20
155.05945154138513
 11
160.92789521088471
 21
155.05945154138513
  0
LINE
  8
_1-0_
  6
CONTINUOUS
 62
    7
 10
148.92790510847763
 20
167.05945401578336
 11
160.92789521088471
 21
155.05945154138513
  0
LINE
  8
_1-0_
  6
CONTINUOUS
 62
    7
 10
100.32790312895904
 20
155.05945154138513
 11
100.32790312895904
 21
167.05945401578336
  0
LINE
  8
_1-0_
  6
CONTINUOUS
 62
    7
 10
100.32790312895904
 20
167.05945401578336
 11
88.327913026551954
 21
167.05945401578336
  0
LINE
  8
_1-0_
  6
CONTINUOUS
 62
    7
 10
88.327913026551954
 20
167.05945401578336
 11
88.327913026551954
 21
155.05945154138513
  0
LINE
  8
_1-0_
  6
CONTINUOUS
 62
    7
 10
88.327913026551954
 20
155.05945154138513
 11
100.32790312895904
 21
155.05945154138513
  0
LINE
  8
_1-0_
  6
CONTINUOUS
 62
    7
 10
88.327913026551954
 20
167.05945401578336
 11
100.32790312895904
 21
155.05945154138513
  0
LINE
  8
_1-0_
  6
CONTINUOUS
 62
    7
 10
39.727907954035572
 20
155.05945154138513
 11
39.727907954035572
 21
167.05945401578336
  0
LINE
  8
_1-0_
  6
CONTINUOUS
 62
    7
 10
31.905568097088803
 20
162.88180377032307
 11
39.727907954035572
 21
155.05945154138513
  0
LINE
  8
_1-0_
  6
CONTINUOUS
 62
    7
 10
342.72785908467063
 20
167.05945401578336
 11
31.905568097088803
 21
167.05945401578336
  0
LINE
  8
_1-0_
  6
CONTINUOUS
 62
    7
 10
342.72785908467063
 20
169.45945945945948
 11
31.905568097088803
 21
169.45945945945948
  0
LINE
  8
_1-0_
  6
CONTINUOUS
 62
    7
 10
39.727907954035572
 20
167.05945401578336
 11
31.905568097088803
 21
167.05945401578336
  0
LINE
  8
_1-0_
  6
CONTINUOUS
 62
    7
 10
39.727907954035572
 20
155.05945154138513
 11
31.905568097088803
 21
155.05945154138513
  0
LINE
  8
_1-0_
  6
CONTINUOUS
 62
    7
 10
275.52785512563344
 20
170.65946836729307
 11
275.52785512563344
 21
171.2594728212099
  0
LINE
  8
_1-0_
  6
CONTINUOUS
 62
    7
 10
275.52785512563344
 20
171.2594728212099
 11
270.72786898226354
 21
171.2594728212099
  0
LINE
  8
_1-0_
  6
CONTINUOUS
 62
    7
 10
270.72786898226354
 20
171.2594728212099
 11
270.72786898226354
 21
170.65946836729307
  0
LINE
  8
_1-0_
  6
CONTINUOUS
 62
    7
 10
270.72786898226354
 20
170.65946836729307
 11
275.52785512563344
 21
170.65946836729307
  0
LINE
  8
_1-0_
  6
CONTINUOUS
 62
    7
 10
275.52785512563344
 20
171.2594728212099
 11
270.72786898226354
 21
170.65946836729307
  0
LINE
  8
_1-0_
  6
CONTINUOUS
 62
    7
 10
214.92786304370779
 20
170.65946836729307
 11
214.92786304370779
 21
171.2594728212099
  0
LINE
  8
_1-0_
  6
CONTINUOUS
 62
    7
 10
214.92786304370779
 20
171.2594728212099
 11
210.12787690033784
 21
171.2594728212099
  0
LINE
  8
_1-0_
  6
CONTINUOUS
 62
    7
 10
210.12787690033784
 20
171.2594728212099
 11
210.12787690033784
 21
170.65946836729307
  0
LINE
  8
_1-0_
  6
CONTINUOUS
 62
    7
 10
210.12787690033784
 20
170.65946836729307
 11
214.92786304370779
 21
170.65946836729307
  0
LINE
  8
_1-0_
  6
CONTINUOUS
 62
    7
 10
214.92786304370779
 20
171.2594728212099
 11
210.12787690033784
 21
170.65946836729307
  0
LINE
  8
_1-0_
  6
CONTINUOUS
 62
    7
 10
154.32788333377323
 20
170.65946836729307
 11
154.32788333377323
 21
171.2594728212099
  0
LINE
  8
_1-0_
  6
CONTINUOUS
 62
    7
 10
154.32788333377323
 20
171.2594728212099
 11
149.52789719040331
 21
171.2594728212099
  0
LINE
  8
_1-0_
  6
CONTINUOUS
 62
    7
 10
149.52789719040331
 20
171.2594728212099
 11
149.52789719040331
 21
170.65946836729307
  0
LINE
  8
_1-0_
  6
CONTINUOUS
 62
    7
 10
149.52789719040331
 20
170.65946836729307
 11
154.32788333377323
 21
170.65946836729307
  0
LINE
  8
_1-0_
  6
CONTINUOUS
 62
    7
 10
154.32788333377323
 20
171.2594728212099
 11
149.52789719040331
 21
170.65946836729307
  0
LINE
  8
_1-0_
  6
CONTINUOUS
 62
    7
 10
93.727891251847552
 20
170.65946836729307
 11
93.727891251847552
 21
171.2594728212099
  0
LINE
  8
_1-0_
  6
CONTINUOUS
 62
    7
 10
93.727891251847552
 20
171.2594728212099
 11
88.927905108477617
 21
171.2594728212099
  0
LINE
  8
_1-0_
  6
CONTINUOUS
 62
    7
 10
88.927905108477617
 20
171.2594728212099
 11
88.927905108477617
 21
170.65946836729307
  0
LINE
  8
_1-0_
  6
CONTINUOUS
 62
    7
 10
88.927905108477617
 20
170.65946836729307
 11
93.727891251847552
 21
170.65946836729307
  0
LINE
  8
_1-0_
  6
CONTINUOUS
 62
    7
 10
93.727891251847552
 20
171.2594728212099
 11
88.927905108477617
 21
170.65946836729307
  0
LINE
  8
_1-0_
  6
CONTINUOUS
 62
    7
 10
33.127896076924088
 20
170.65946836729307
 11
33.127896076924088
 21
171.2594728212099
  0
LINE
  8
_1-0_
  6
CONTINUOUS
 62
    7
 10
31.905543353106538
 20
170.65946836729307
 11
33.127896076924088
 21
170.65946836729307
  0
LINE
  8
_1-0_
  6
CONTINUOUS
 62
    7
 10
33.127896076924088
 20
171.2594728212099
 11
31.905568097088803
 21
171.10667873073268
  0
LINE
  8
_1-0_
  6
CONTINUOUS
 62
    7
 10
33.127896076924088
 20
171.2594728212099
 11
31.905543353106538
 21
171.2594728212099
  0
LINE
  8
_1-0_
  6
CONTINUOUS
 62
    7
 10
342.72785908467063
 20
167.05945401578336
 11
350.72788547825172
 21
167.05945401578336
  0
LINE
  8
_1-0_
  6
CONTINUOUS
 62
    7
 10
342.72785908467063
 20
169.45945945945948
 11
350.72788547825172
 21
169.45945945945948
  0
LINE
  8
_1-0_
  6
CONTINUOUS
 62
    7
 10
338.74477077174834
 20
155.05945154138513
 11
31.905568097088803
 21
155.05945154138513
  0
LINE
  8
_1-0_
  6
CONTINUOUS
 62
    7
 10
338.74477077174834
 20
155.05945154138513
 11
338.74477077174834
 21
153.85945500554266
  0
LINE
  8
_1-0_
  6
CONTINUOUS
 62
    7
 10
338.74477077174834
 20
153.85945500554266
 11
31.905568097088803
 21
153.85945500554266
  0
LINE
  8
_1-0_
  6
CONTINUOUS
 62
    7
 10
344.72786568306589
 20
149.85945418074326
 11
336.72786403346709
 21
149.85945418074326
  0
LINE
  8
_1-0_
  6
CONTINUOUS
 62
    7
 10
336.72786403346709
 20
153.85945500554266
 11
336.72786403346709
 21
149.85945418074326
  0
LINE
  8
_1-0_
  6
CONTINUOUS
 62
    7
 10
344.72786568306589
 20
167.05945401578336
 11
344.72786568306589
 21
149.85945418074326
  0
LINE
  8
_1-0_
  6
CONTINUOUS
 62
    7
 10
336.72786403346709
 20
167.05945401578336
 11
336.72786403346709
 21
155.05945154138513
  0
LINE
  8
_1-0_
  6
CONTINUOUS
 62
    7
 10
330.72786898226354
 20
155.05945154138513
 11
338.74477077174834
 21
155.05945154138513
  0
LINE
  8
_1-0_
  6
CONTINUOUS
 62
    7
 10
332.7278755806588
 20
169.45945945945948
 11
332.7278755806588
 21
167.05945401578336
  0
LINE
  8
_1-0_
  6
CONTINUOUS
 62
    7
 10
338.19250983160896
 20
149.85945418074326
 11
336.72786403346709
 21
151.32408760689401
  0
LINE
  8
_1-0_
  6
CONTINUOUS
 62
    7
 10
341.02094495618667
 20
149.85945418074326
 11
337.02093175939615
 21
153.85945500554266
  0
LINE
  8
_1-0_
  6
CONTINUOUS
 62
    7
 10
343.84935533678214
 20
149.85945418074326
 11
338.74477077174834
 21
154.96403874577703
  0
LINE
  8
_1-0_
  6
CONTINUOUS
 62
    7
 10
338.64935797614021
 20
155.05945154138513
 11
336.72786403346709
 21
156.98094548405828
  0
LINE
  8
_1-0_
  6
CONTINUOUS
 62
    7
 10
344.72786568306589
 20
151.80936658704604
 11
336.72786403346709
 21
159.80936823664484
  0
LINE
  8
_1-0_
  6
CONTINUOUS
 62
    7
 10
344.72786568306589
 20
154.6377893396326
 11
336.72786403346709
 21
162.63779098923143
  0
LINE
  8
_1-0_
  6
CONTINUOUS
 62
    7
 10
344.72786568306589
 20
157.46622446421031
 11
336.72786403346709
 21
165.46622611380914
  0
LINE
  8
_1-0_
  6
CONTINUOUS
 62
    7
 10
344.72786568306589
 20
160.29464721679687
 11
337.96305888407943
 21
167.05945401578336
  0
LINE
  8
_1-0_
  6
CONTINUOUS
 62
    7
 10
344.72786568306589
 20
163.12308234137458
 11
340.79149400865714
 21
167.05945401578336
  0
LINE
  8
_1-0_
  6
CONTINUOUS
 62
    7
 10
344.72786568306589
 20
165.95150509396115
 11
343.61992913323479
 21
167.05945401578336
  0
LINE
  8
_1-0_
  6
CONTINUOUS
 62
    7
 10
350.72788547825172
 20
168.14596227697425
 11
349.64135247307854
 21
167.05945401578336
  0
LINE
  8
_1-0_
  6
CONTINUOUS
 62
    7
 10
349.21293516416807
 20
169.45945945945948
 11
346.81294209248313
 21
167.05945401578336
  0
LINE
  8
_1-0_
  6
CONTINUOUS
 62
    7
 10
346.38452478357266
 20
169.45945945945948
 11
343.98450696790542
 21
167.05945401578336
  0
LINE
  8
_1-0_
  6
CONTINUOUS
 62
    7
 10
343.55611440297719
 20
169.45945945945948
 11
341.15609658731
 21
167.05945401578336
  0
LINE
  8
_1-0_
  6
CONTINUOUS
 62
    7
 10
340.72767927839953
 20
169.45945945945948
 11
338.32768620671453
 21
167.05945401578336
  0
LINE
  8
_1-0_
  6
CONTINUOUS
 62
    7
 10
337.89926889780406
 20
169.45945945945948
 11
335.49925108213682
 21
167.05945401578336
  0
LINE
  8
_1-0_
  6
CONTINUOUS
 62
    7
 10
335.07085851720865
 20
169.45945945945948
 11
332.7278755806588
 21
167.11648889490078
  0
LINE
  8
_1-0_
  6
CONTINUOUS
 62
    7
 10
350.72788547825172
 20
167.05945401578336
 11
350.72788547825172
 21
174.25947034681167
  0
LINE
  8
_1-0_
  6
CONTINUOUS
 62
    7
 10
341.72788052945526
 20
169.45945945945948
 11
341.72788052945526
 21
174.25947034681167
  0
LINE
  8
_1-0_
  6
CONTINUOUS
 62
    7
 10
341.72788052945526
 20
174.25947034681167
 11
350.72788547825172
 21
174.25947034681167
  0
LINE
  8
_1-0_
  6
DASHED1
 62
    3
 10
350.77695279508026
 20
174.51773566168708
 11
341.49395092113599
 21
174.51773566168708
  0
LINE
  8
_1-0_
  6
DASHED1
 62
    3
 10
350.77695279508026
 20
174.51773566168708
 11
351.02699073585308
 21
174.51773566168708
  0
LINE
  8
_1-0_
  6
DASHED1
 62
    3
 10
351.02699073585308
 20
174.51773566168708
 11
351.02699073585308
 21
169.51679126636404
  0
LINE
  8
_1-0_
  6
DASHED1
 62
    3
 10
341.49395092113599
 20
174.51773566168708
 11
341.49395092113599
 21
170.05946391337628
  0
LINE
  8
_1-0_
  6
DASHED1
 62
    3
 10
341.49395092113599
 20
170.05946391337628
 11
31.905568097088803
 21
170.05946391337628
  0
LINE
  8
_1-0_
  6
CONTINUOUS
 62
    7
 10
340.99385029560813
 20
170.65946836729307
 11
31.905568097088803
 21
170.65946836729307
  0
LINE
  8
_1-0_
  6
CONTINUOUS
 62
    7
 10
340.99385029560813
 20
171.2594728212099
 11
31.905543353106538
 21
171.2594728212099
  0
LINE
  8
_1-0_
  6
CONTINUOUS
 62
    7
 10
340.99385029560813
 20
171.2594728212099
 11
340.99385029560813
 21
170.65946836729307
  0
LINE
  8
_1-0_
  6
CONTINUOUS
 62
    7
 10
340.99385029560813
 20
174.25947034681167
 11
340.99385029560813
 21
171.2594728212099
  0
LINE
  8
_1-0_
  6
CONTINUOUS
 62
    7
 10
340.99385029560813
 20
170.65946836729307
 11
340.99385029560813
 21
171.2594728212099
  0
LINE
  8
_1-0_
  6
CONTINUOUS
 62
    7
 10
340.99385029560813
 20
171.2594728212099
 11
336.19383940825594
 21
171.2594728212099
  0
LINE
  8
_1-0_
  6
CONTINUOUS
 62
    7
 10
336.19383940825594
 20
171.2594728212099
 11
336.19383940825594
 21
170.65946836729307
  0
LINE
  8
_1-0_
  6
CONTINUOUS
 62
    7
 10
336.19383940825594
 20
170.65946836729307
 11
340.99385029560813
 21
170.65946836729307
  0
LINE
  8
_1-0_
  6
CONTINUOUS
 62
    7
 10
340.99385029560813
 20
171.2594728212099
 11
336.19383940825594
 21
170.65946836729307
  0
LINE
  8
_1-0_
  6
CONTINUOUS
 62
    7
 10
340.99385029560813
 20
174.25947034681167
 11
31.905543353106538
 21
174.25947034681167
  0
LINE
  8
_1-0_
  6
CONTINUOUS
 62
    7
 10
350.72788547825172
 20
174.25947034681167
 11
341.72788052945526
 21
169.45945945945948
  0
LINE
  8
ADD_LINE
  6
DOT
 62
    4
 10
351.72788877744932
 20
189.38186645507812
 11
351.72788877744932
 21
139.0657208416913
  0
LINE
  8
_1-1_
  6
CONTINUOUS
 62
    7
 10
409.02163943728885
 20
370.00493230046453
 11
422.8216552734375
 21
370.00493230046453
  0
LINE
  8
_1-1_
  6
CONTINUOUS
 62
    7
 10
385.82165692303636
 20
370.00493230046453
 11
390.42166220175255
 21
370.00493230046453
  0
LINE
  8
_1-1_
  6
CONTINUOUS
 62
    7
 10
391.8216519742399
 20
370.00493230046453
 11
407.62164966480157
 21
370.00493230046453
  0
LINE
  8
_1-1_
  6
CONTINUOUS
 62
    7
 10
377.8216552734375
 20
373.20494780669344
 11
377.8216552734375
 21
370.20493790910052
  0
LINE
  8
_1-1_
  6
CONTINUOUS
 62
    7
 10
375.02165098448057
 20
370.20493790910052
 11
377.8216552734375
 21
370.20493790910052
  0
LINE
  8
_1-1_
  6
CONTINUOUS
 62
    7
 10
377.8216552734375
 20
373.20494780669344
 11
377.8216552734375
 21
370.8049299910262
  0
LINE
  8
_1-1_
  6
CONTINUOUS
 62
    7
 10
377.8216552734375
 20
373.20494780669344
 11
377.8216552734375
 21
370.8049299910262
  0
LINE
  8
_1-1_
  6
CONTINUOUS
 62
    7
 10
385.82165692303636
 20
370.00493230046453
 11
385.4171423009924
 21
371.00493559966219
  0
LINE
  8
_1-1_
  6
CONTINUOUS
 62
    7
 10
422.8216552734375
 20
370.00493230046453
 11
422.8216552734375
 21
356.20494120829818
  0
LINE
  8
_1-1_
  6
CONTINUOUS
 62
    7
 10
425.22167308910474
 20
356.20494120829818
 11
422.8216552734375
 21
356.20494120829818
  0
LINE
  8
_1-1_
  6
CONTINUOUS
 62
    7
 10
425.82166517103042
 20
356.80493329022386
 11
425.82166517103042
 21
373.20494780669344
  0
LINE
  8
_1-1_
  6
CONTINUOUS
 62
    7
 10
425.22167308910474
 20
356.20494120829818
 11
425.82166517103042
 21
356.80493329022386
  0
LINE
  8
_1-1_
  6
CONTINUOUS
 62
    7
 10
425.82166517103042
 20
373.20494780669344
 11
420.82832955025339
 21
373.20494780669344
  0
LINE
  8
_1-1_
  6
CONTINUOUS
 62
    7
 10
416.51134594066724
 20
373.20494780669344
 11
377.8216552734375
 21
373.20494780669344
  0
LINE
  8
_1-1_
  6
CONTINUOUS
 62
    7
 10
377.8216552734375
 20
373.20494780669344
 11
377.8216552734375
 21
370.8049299910262
  0
LINE
  8
_1-1_
  6
CONTINUOUS
 62
    7
 10
377.8216552734375
 20
373.20494780669344
 11
377.8216552734375
 21
370.8049299910262
  0
LINE
  8
_1-1_
  6
CONTINUOUS
 62
    7
 10
370.82165692303636
 20
370.8049299910262
 11
371.82166022223396
 21
370.8049299910262
  0
LINE
  8
_1-1_
  6
CONTINUOUS
 62
    7
 10
371.82166022223396
 20
370.8049299910262
 11
371.82166022223396
 21
370.20493790910052
  0
LINE
  8
_1-1_
  6
CONTINUOUS
 62
    7
 10
374.22165329391896
 20
370.8049299910262
 11
375.02165098448057
 21
370.8049299910262
  0
LINE
  8
_1-1_
  6
CONTINUOUS
 62
    7
 10
374.22165329391896
 20
370.8049299910262
 11
374.22165329391896
 21
370.20493790910052
  0
LINE
  8
_1-1_
  6
CONTINUOUS
 62
    7
 10
375.02165098448057
 20
370.8049299910262
 11
375.02165098448057
 21
370.20493790910052
  0
LINE
  8
_1-1_
  6
CONTINUOUS
 62
    7
 10
371.82166022223396
 20
370.20493790910052
 11
374.22165329391896
 21
370.20493790910052
  0
LINE
  8
_1-1_
  6
CONTINUOUS
 62
    7
 10
370.82165692303636
 20
370.8049299910262
 11
370.82165692303636
 21
368.80494813661318
  0
LINE
  8
_1-1_
  6
CONTINUOUS
 62
    7
 10
378.36500837996203
 20
368.80494813661318
 11
370.82165692303636
 21
368.80494813661318
  0
LINE
  8
_1-1_
  6
CONTINUOUS
 62
    7
 10
378.87119602512672
 20
369.08282305743245
 11
380.0448278478674
 21
370.92706628747891
  0
LINE
  8
_1-1_
  6
CONTINUOUS
 62
    7
 10
385.4171423009924
 20
371.00493559966219
 11
380.10379275760135
 21
371.00493559966219
  0
LINE
  8
_1-1_
  6
CONTINUOUS
 62
    7
 10
390.62164306640625
 20
367.80494483741558
 11
391.62164636560391
 21
367.80494483741558
  0
LINE
  8
_1-1_
  6
CONTINUOUS
 62
    7
 10
407.8216552734375
 20
367.80494483741558
 11
408.82165857263516
 21
367.80494483741558
  0
LINE
  8
_1-1_
  6
CONTINUOUS
 62
    7
 10
409.02163943728885
 20
370.00493230046453
 11
408.82165857263516
 21
367.80494483741558
  0
LINE
  8
_1-1_
  6
CONTINUOUS
 62
    7
 10
407.8216552734375
 20
367.80494483741558
 11
407.62164966480157
 21
370.00493230046453
  0
LINE
  8
_1-1_
  6
CONTINUOUS
 62
    7
 10
391.8216519742399
 20
370.00493230046453
 11
391.62164636560391
 21
367.80494483741558
  0
LINE
  8
_1-1_
  6
CONTINUOUS
 62
    7
 10
390.62164306640625
 20
367.80494483741558
 11
390.42166220175255
 21
370.00493230046453
  0
LINE
  8
_1-2_
  6
CONTINUOUS
 62
    7
 10
61.927828402132604
 20
179.6340612463049
 11
123.12783730996622
 21
179.6340612463049
  0
LINE
  8
_1-2_
  6
CONTINUOUS
 62
    7
 10
123.12783730996622
 20
179.6340612463049
 11
123.12783730996622
 21
178.03406586518159
  0
LINE
  8
_1-2_
  6
CONTINUOUS
 62
    7
 10
121.72782279349663
 20
178.03406586518159
 11
121.72782279349663
 21
177.83406025654563
  0
LINE
  8
_1-2_
  6
CONTINUOUS
 62
    7
 10
122.52782048405828
 20
178.03406586518159
 11
122.52782048405828
 21
177.83406025654563
  0
LINE
  8
_1-2_
  6
CONTINUOUS
 62
    7
 10
119.72781619510135
 20
178.03406586518159
 11
119.72781619510135
 21
177.83406025654563
  0
LINE
  8
_1-2_
  6
CONTINUOUS
 62
    7
 10
119.12782411317568
 20
178.03406586518159
 11
119.12782411317568
 21
177.83406025654563
  0
LINE
  8
_1-2_
  6
CONTINUOUS
 62
    7
 10
119.12782411317568
 20
177.83406025654563
 11
119.72781619510135
 21
177.83406025654563
  0
LINE
  8
_1-2_
  6
CONTINUOUS
 62
    7
 10
121.72782279349663
 20
177.83406025654563
 11
122.52782048405828
 21
177.83406025654563
  0
LINE
  8
_1-2_
  6
CONTINUOUS
 62
    7
 10
119.72781619510135
 20
178.03406586518159
 11
121.72782279349663
 21
178.03406586518159
  0
LINE
  8
_1-2_
  6
CONTINUOUS
 62
    7
 10
122.52782048405828
 20
178.03406586518159
 11
123.12783730996622
 21
178.03406586518159
  0
LINE
  8
_1-2_
  6
CONTINUOUS
 62
    7
 10
114.735012569943
 20
178.03406586518159
 11
114.80371423669764
 21
178.03406586518159
  0
LINE
  8
_1-2_
  6
CONTINUOUS
 62
    7
 10
114.32782559781462
 20
178.03406586518159
 11
114.735012569943
 21
178.03406586518159
  0
LINE
  8
_1-2_
  6
CONTINUOUS
 62
    7
 10
98.327822298616979
 20
176.63406372070313
 11
111.32782807221284
 21
176.63406372070313
  0
LINE
  8
_1-2_
  6
CONTINUOUS
 62
    7
 10
79.927825927734375
 20
176.63406372070313
 11
80.927829226932033
 21
174.23405827702703
  0
LINE
  8
_1-2_
  6
CONTINUOUS
 62
    7
 10
81.927832526129635
 20
174.23405827702703
 11
82.92782345333616
 21
176.63406372070313
  0
LINE
  8
_1-2_
  6
CONTINUOUS
 62
    7
 10
95.327824773015209
 20
176.63406372070313
 11
96.327828072212839
 21
174.23405827702703
  0
LINE
  8
_1-2_
  6
CONTINUOUS
 62
    7
 10
97.327831371410483
 20
174.23405827702703
 11
98.327822298616979
 21
176.63406372070313
  0
LINE
  8
_1-2_
  6
CONTINUOUS
 62
    7
 10
111.32782807221284
 20
176.63406372070313
 11
112.32783137141048
 21
174.23405827702703
  0
LINE
  8
_1-2_
  6
CONTINUOUS
 62
    7
 10
114.32782559781462
 20
178.03406586518159
 11
119.12782411317568
 21
178.03406586518159
  0
LINE
  8
_1-2_
  6
CONTINUOUS
 62
    7
 10
80.927829226932033
 20
174.23405827702703
 11
81.927832526129635
 21
174.23405827702703
  0
LINE
  8
_1-2_
  6
CONTINUOUS
 62
    7
 10
96.327828072212839
 20
174.23405827702703
 11
97.327831371410483
 21
174.23405827702703
  0
LINE
  8
_1-2_
  6
CONTINUOUS
 62
    7
 10
113.32782229861698
 20
174.23405827702703
 11
113.6261357487859
 21
175.36762959248313
  0
LINE
  8
_1-2_
  6
CONTINUOUS
 62
    7
 10
113.62919163059544
 20
175.37924689215583
 11
114.32782559781462
 21
178.03406586518159
  0
LINE
  8
_1-2_
  6
CONTINUOUS
 62
    7
 10
112.32783137141048
 20
174.23405827702703
 11
113.32782229861698
 21
174.23405827702703
  0
LINE
  8
_1-2_
  6
CONTINUOUS
 62
    7
 10
64.657200993718334
 20
176.63406372070313
 11
79.927825927734375
 21
176.63406372070313
  0
LINE
  8
_1-2_
  6
CONTINUOUS
 62
    7
 10
82.92782345333616
 20
176.63406372070313
 11
95.327824773015209
 21
176.63406372070313
  0
LINE
  8
_1-2_
  6
CONTINUOUS
 62
    7
 10
61.927828402132604
 20
179.6340612463049
 11
61.927828402132604
 21
175.6340604215055
  0
LINE
  8
_1-2_
  6
CONTINUOUS
 62
    7
 10
62.977381525812916
 20
174.5119331978463
 11
64.1510009765625
 21
176.35618879988388
  0
LINE
  8
_1-2_
  6
CONTINUOUS
 62
    7
 10
54.127832361169766
 20
176.23406487542232
 11
55.127835660367396
 21
176.23406487542232
  0
LINE
  8
_1-2_
  6
CONTINUOUS
 62
    7
 10
55.127835660367396
 20
176.23406487542232
 11
55.127835660367396
 21
175.6340604215055
  0
LINE
  8
_1-2_
  6
CONTINUOUS
 62
    7
 10
54.127832361169766
 20
176.23406487542232
 11
54.127832361169766
 21
174.23405827702703
  0
LINE
  8
_1-2_
  6
CONTINUOUS
 62
    7
 10
62.471181508657082
 20
174.23405827702703
 11
54.127832361169766
 21
174.23405827702703
  0
LINE
  8
_1-2_
  6
CONTINUOUS
 62
    7
 10
57.627831536370365
 20
176.23406487542232
 11
58.427829226932005
 21
176.23406487542232
  0
LINE
  8
_1-2_
  6
CONTINUOUS
 62
    7
 10
57.627831536370365
 20
176.23406487542232
 11
57.627831536370365
 21
175.6340604215055
  0
LINE
  8
_1-2_
  6
CONTINUOUS
 62
    7
 10
58.427829226932005
 20
176.23406487542232
 11
58.427829226932005
 21
175.6340604215055
  0
LINE
  8
_1-2_
  6
CONTINUOUS
 62
    7
 10
58.427829226932005
 20
175.6340604215055
 11
61.927828402132604
 21
175.6340604215055
  0
LINE
  8
_1-2_
  6
CONTINUOUS
 62
    7
 10
55.127835660367396
 20
175.6340604215055
 11
57.627831536370365
 21
175.6340604215055
  0
LINE
  8
_1-2_
  6
CONTINUOUS
 62
    7
 10
123.12783730996622
 20
179.6340612463049
 11
184.32784621779984
 21
179.6340612463049
  0
LINE
  8
_1-2_
  6
CONTINUOUS
 62
    7
 10
184.32784621779984
 20
179.6340612463049
 11
184.32784621779984
 21
178.03406586518159
  0
LINE
  8
_1-2_
  6
CONTINUOUS
 62
    7
 10
182.92783170133023
 20
178.03406586518159
 11
182.92783170133023
 21
177.83406025654563
  0
LINE
  8
_1-2_
  6
CONTINUOUS
 62
    7
 10
183.7278293918919
 20
178.03406586518159
 11
183.7278293918919
 21
177.83406025654563
  0
LINE
  8
_1-2_
  6
CONTINUOUS
 62
    7
 10
180.92782510293497
 20
178.03406586518159
 11
180.92782510293497
 21
177.83406025654563
  0
LINE
  8
_1-2_
  6
CONTINUOUS
 62
    7
 10
180.3278330210093
 20
178.03406586518159
 11
180.3278330210093
 21
177.83406025654563
  0
LINE
  8
_1-2_
  6
CONTINUOUS
 62
    7
 10
180.3278330210093
 20
177.83406025654563
 11
180.92782510293497
 21
177.83406025654563
  0
LINE
  8
_1-2_
  6
CONTINUOUS
 62
    7
 10
182.92783170133023
 20
177.83406025654563
 11
183.7278293918919
 21
177.83406025654563
  0
LINE
  8
_1-2_
  6
CONTINUOUS
 62
    7
 10
180.92782510293497
 20
178.03406586518159
 11
182.92783170133023
 21
178.03406586518159
  0
LINE
  8
_1-2_
  6
CONTINUOUS
 62
    7
 10
183.7278293918919
 20
178.03406586518159
 11
184.32784621779984
 21
178.03406586518159
  0
LINE
  8
_1-2_
  6
CONTINUOUS
 62
    7
 10
175.93502147777662
 20
178.03406586518159
 11
176.00372314453125
 21
178.03406586518159
  0
LINE
  8
_1-2_
  6
CONTINUOUS
 62
    7
 10
175.52783450564823
 20
178.03406586518159
 11
175.93502147777662
 21
178.03406586518159
  0
LINE
  8
_1-2_
  6
CONTINUOUS
 62
    7
 10
159.5278312064506
 20
176.63406372070313
 11
172.52783698004646
 21
176.63406372070313
  0
LINE
  8
_1-2_
  6
CONTINUOUS
 62
    7
 10
141.127834835568
 20
176.63406372070313
 11
142.12783813476562
 21
174.23405827702703
  0
LINE
  8
_1-2_
  6
CONTINUOUS
 62
    7
 10
143.12784143396325
 20
174.23405827702703
 11
144.12783236116977
 21
176.63406372070313
  0
LINE
  8
_1-2_
  6
CONTINUOUS
 62
    7
 10
156.52783368084883
 20
176.63406372070313
 11
157.52783698004646
 21
174.23405827702703
  0
LINE
  8
_1-2_
  6
CONTINUOUS
 62
    7
 10
158.52784027924409
 20
174.23405827702703
 11
159.5278312064506
 21
176.63406372070313
  0
LINE
  8
_1-2_
  6
CONTINUOUS
 62
    7
 10
172.52783698004646
 20
176.63406372070313
 11
173.52784027924409
 21
174.23405827702703
  0
LINE
  8
_1-2_
  6
CONTINUOUS
 62
    7
 10
175.52783450564823
 20
178.03406586518159
 11
180.3278330210093
 21
178.03406586518159
  0
LINE
  8
_1-2_
  6
CONTINUOUS
 62
    7
 10
142.12783813476562
 20
174.23405827702703
 11
143.12784143396325
 21
174.23405827702703
  0
LINE
  8
_1-2_
  6
CONTINUOUS
 62
    7
 10
157.52783698004646
 20
174.23405827702703
 11
158.52784027924409
 21
174.23405827702703
  0
LINE
  8
_1-2_
  6
CONTINUOUS
 62
    7
 10
174.5278312064506
 20
174.23405827702703
 11
174.82614465661953
 21
175.36762959248313
  0
LINE
  8
_1-2_
  6
CONTINUOUS
 62
    7
 10
174.82920053842906
 20
175.37924689215583
 11
175.52783450564823
 21
178.03406586518159
  0
LINE
  8
_1-2_
  6
CONTINUOUS
 62
    7
 10
173.52784027924409
 20
174.23405827702703
 11
174.5278312064506
 21
174.23405827702703
  0
LINE
  8
_1-2_
  6
CONTINUOUS
 62
    7
 10
125.85720990155195
 20
176.63406372070313
 11
141.127834835568
 21
176.63406372070313
  0
LINE
  8
_1-2_
  6
CONTINUOUS
 62
    7
 10
144.12783236116977
 20
176.63406372070313
 11
156.52783368084883
 21
176.63406372070313
  0
LINE
  8
_1-2_
  6
CONTINUOUS
 62
    7
 10
123.12783730996622
 20
179.6340612463049
 11
123.12783730996622
 21
175.6340604215055
  0
LINE
  8
_1-2_
  6
CONTINUOUS
 62
    7
 10
124.17739043364655
 20
174.5119331978463
 11
125.35100988439612
 21
176.35618879988388
  0
LINE
  8
_1-2_
  6
CONTINUOUS
 62
    7
 10
115.32784126900339
 20
176.23406487542232
 11
116.32784456820102
 21
176.23406487542232
  0
LINE
  8
_1-2_
  6
CONTINUOUS
 62
    7
 10
116.32784456820102
 20
176.23406487542232
 11
116.32784456820102
 21
175.6340604215055
  0
LINE
  8
_1-2_
  6
CONTINUOUS
 62
    7
 10
115.32784126900339
 20
176.23406487542232
 11
115.32784126900339
 21
174.23405827702703
  0
LINE
  8
_1-2_
  6
CONTINUOUS
 62
    7
 10
123.67119041649072
 20
174.23405827702703
 11
115.32784126900339
 21
174.23405827702703
  0
LINE
  8
_1-2_
  6
CONTINUOUS
 62
    7
 10
118.82784044420397
 20
176.23406487542232
 11
119.62783813476562
 21
176.23406487542232
  0
LINE
  8
_1-2_
  6
CONTINUOUS
 62
    7
 10
118.82784044420397
 20
176.23406487542232
 11
118.82784044420397
 21
175.6340604215055
  0
LINE
  8
_1-2_
  6
CONTINUOUS
 62
    7
 10
119.62783813476562
 20
176.23406487542232
 11
119.62783813476562
 21
175.6340604215055
  0
LINE
  8
_1-2_
  6
CONTINUOUS
 62
    7
 10
119.62783813476562
 20
175.6340604215055
 11
123.12783730996622
 21
175.6340604215055
  0
LINE
  8
_1-2_
  6
CONTINUOUS
 62
    7
 10
116.32784456820102
 20
175.6340604215055
 11
118.82784044420397
 21
175.6340604215055
  0
LINE
  8
_1-2_
  6
CONTINUOUS
 62
    7
 10
184.32784621779984
 20
179.6340612463049
 11
245.52785512563347
 21
179.6340612463049
  0
LINE
  8
_1-2_
  6
CONTINUOUS
 62
    7
 10
245.52785512563347
 20
179.6340612463049
 11
245.52785512563347
 21
178.03406586518159
  0
LINE
  8
_1-2_
  6
CONTINUOUS
 62
    7
 10
244.12784060916385
 20
178.03406586518159
 11
244.12784060916385
 21
177.83406025654563
  0
LINE
  8
_1-2_
  6
CONTINUOUS
 62
    7
 10
244.92783829972552
 20
178.03406586518159
 11
244.92783829972552
 21
177.83406025654563
  0
LINE
  8
_1-2_
  6
CONTINUOUS
 62
    7
 10
242.12783401076859
 20
178.03406586518159
 11
242.12783401076859
 21
177.83406025654563
  0
LINE
  8
_1-2_
  6
CONTINUOUS
 62
    7
 10
241.52784192884292
 20
178.03406586518159
 11
241.52784192884292
 21
177.83406025654563
  0
LINE
  8
_1-2_
  6
CONTINUOUS
 62
    7
 10
241.52784192884292
 20
177.83406025654563
 11
242.12783401076859
 21
177.83406025654563
  0
LINE
  8
_1-2_
  6
CONTINUOUS
 62
    7
 10
244.12784060916385
 20
177.83406025654563
 11
244.92783829972552
 21
177.83406025654563
  0
LINE
  8
_1-2_
  6
CONTINUOUS
 62
    7
 10
242.12783401076859
 20
178.03406586518159
 11
244.12784060916385
 21
178.03406586518159
  0
LINE
  8
_1-2_
  6
CONTINUOUS
 62
    7
 10
244.92783829972552
 20
178.03406586518159
 11
245.52785512563347
 21
178.03406586518159
  0
LINE
  8
_1-2_
  6
CONTINUOUS
 62
    7
 10
237.13504275760135
 20
178.03406586518159
 11
237.20373205236487
 21
178.03406586518159
  0
LINE
  8
_1-2_
  6
CONTINUOUS
 62
    7
 10
236.727855785473
 20
178.03406586518159
 11
237.13504275760135
 21
178.03406586518159
  0
LINE
  8
_1-2_
  6
CONTINUOUS
 62
    7
 10
220.72785248627534
 20
176.63406372070313
 11
233.72784588788008
 21
176.63406372070313
  0
LINE
  8
_1-2_
  6
CONTINUOUS
 62
    7
 10
202.32784374340162
 20
176.63406372070313
 11
203.32784704259925
 21
174.23405827702703
  0
LINE
  8
_1-2_
  6
CONTINUOUS
 62
    7
 10
204.32785034179687
 20
174.23405827702703
 11
205.32784126900339
 21
176.63406372070313
  0
LINE
  8
_1-2_
  6
CONTINUOUS
 62
    7
 10
217.72784258868245
 20
176.63406372070313
 11
218.72784588788008
 21
174.23405827702703
  0
LINE
  8
_1-2_
  6
CONTINUOUS
 62
    7
 10
219.72784918707771
 20
174.23405827702703
 11
220.72785248627534
 21
176.63406372070313
  0
LINE
  8
_1-2_
  6
CONTINUOUS
 62
    7
 10
233.72784588788008
 20
176.63406372070313
 11
234.72784918707771
 21
174.23405827702703
  0
LINE
  8
_1-2_
  6
CONTINUOUS
 62
    7
 10
236.727855785473
 20
178.03406586518159
 11
241.52784192884292
 21
178.03406586518159
  0
LINE
  8
_1-2_
  6
CONTINUOUS
 62
    7
 10
203.32784704259925
 20
174.23405827702703
 11
204.32785034179687
 21
174.23405827702703
  0
LINE
  8
_1-2_
  6
CONTINUOUS
 62
    7
 10
218.72784588788008
 20
174.23405827702703
 11
219.72784918707771
 21
174.23405827702703
  0
LINE
  8
_1-2_
  6
CONTINUOUS
 62
    7
 10
235.72785248627534
 20
174.23405827702703
 11
236.02616593644427
 21
175.36762959248313
  0
LINE
  8
_1-2_
  6
CONTINUOUS
 62
    7
 10
236.02920944626268
 20
175.37924689215583
 11
236.727855785473
 21
178.03406586518159
  0
LINE
  8
_1-2_
  6
CONTINUOUS
 62
    7
 10
234.72784918707771
 20
174.23405827702703
 11
235.72785248627534
 21
174.23405827702703
  0
LINE
  8
_1-2_
  6
CONTINUOUS
 62
    7
 10
187.05721880938557
 20
176.63406372070313
 11
202.32784374340162
 21
176.63406372070313
  0
LINE
  8
_1-2_
  6
CONTINUOUS
 62
    7
 10
205.32784126900339
 20
176.63406372070313
 11
217.72784258868245
 21
176.63406372070313
  0
LINE
  8
_1-2_
  6
CONTINUOUS
 62
    7
 10
184.32784621779984
 20
179.6340612463049
 11
184.32784621779984
 21
175.6340604215055
  0
LINE
  8
_1-2_
  6
CONTINUOUS
 62
    7
 10
185.37739934148016
 20
174.5119331978463
 11
186.55101879222974
 21
176.35618879988388
  0
LINE
  8
_1-2_
  6
CONTINUOUS
 62
    7
 10
176.52785017683701
 20
176.23406487542232
 11
177.52785347603464
 21
176.23406487542232
  0
LINE
  8
_1-2_
  6
CONTINUOUS
 62
    7
 10
177.52785347603464
 20
176.23406487542232
 11
177.52785347603464
 21
175.6340604215055
  0
LINE
  8
_1-2_
  6
CONTINUOUS
 62
    7
 10
176.52785017683701
 20
176.23406487542232
 11
176.52785017683701
 21
174.23405827702703
  0
LINE
  8
_1-2_
  6
CONTINUOUS
 62
    7
 10
184.87119932432432
 20
174.23405827702703
 11
176.52785017683701
 21
174.23405827702703
  0
LINE
  8
_1-2_
  6
CONTINUOUS
 62
    7
 10
180.02784935203761
 20
176.23406487542232
 11
180.82784704259925
 21
176.23406487542232
  0
LINE
  8
_1-2_
  6
CONTINUOUS
 62
    7
 10
180.02784935203761
 20
176.23406487542232
 11
180.02784935203761
 21
175.6340604215055
  0
LINE
  8
_1-2_
  6
CONTINUOUS
 62
    7
 10
180.82784704259925
 20
176.23406487542232
 11
180.82784704259925
 21
175.6340604215055
  0
LINE
  8
_1-2_
  6
CONTINUOUS
 62
    7
 10
180.82784704259925
 20
175.6340604215055
 11
184.32784621779984
 21
175.6340604215055
  0
LINE
  8
_1-2_
  6
CONTINUOUS
 62
    7
 10
177.52785347603464
 20
175.6340604215055
 11
180.02784935203761
 21
175.6340604215055
  0
LINE
  8
_1-2_
  6
CONTINUOUS
 62
    7
 10
245.52785512563347
 20
179.6340612463049
 11
306.72786403346709
 21
179.6340612463049
  0
LINE
  8
_1-2_
  6
CONTINUOUS
 62
    7
 10
306.72786403346709
 20
179.6340612463049
 11
306.72786403346709
 21
178.03406586518159
  0
LINE
  8
_1-2_
  6
CONTINUOUS
 62
    7
 10
305.3278495169975
 20
178.03406586518159
 11
305.3278495169975
 21
177.83406025654563
  0
LINE
  8
_1-2_
  6
CONTINUOUS
 62
    7
 10
306.12784720755911
 20
178.03406586518159
 11
306.12784720755911
 21
177.83406025654563
  0
LINE
  8
_1-2_
  6
CONTINUOUS
 62
    7
 10
303.32784291860219
 20
178.03406586518159
 11
303.32784291860219
 21
177.83406025654563
  0
LINE
  8
_1-2_
  6
CONTINUOUS
 62
    7
 10
302.72785083667651
 20
178.03406586518159
 11
302.72785083667651
 21
177.83406025654563
  0
LINE
  8
_1-2_
  6
CONTINUOUS
 62
    7
 10
302.72785083667651
 20
177.83406025654563
 11
303.32784291860219
 21
177.83406025654563
  0
LINE
  8
_1-2_
  6
CONTINUOUS
 62
    7
 10
305.3278495169975
 20
177.83406025654563
 11
306.12784720755911
 21
177.83406025654563
  0
LINE
  8
_1-2_
  6
CONTINUOUS
 62
    7
 10
303.32784291860219
 20
178.03406586518159
 11
305.3278495169975
 21
178.03406586518159
  0
LINE
  8
_1-2_
  6
CONTINUOUS
 62
    7
 10
306.12784720755911
 20
178.03406586518159
 11
306.72786403346709
 21
178.03406586518159
  0
LINE
  8
_1-2_
  6
CONTINUOUS
 62
    7
 10
298.335051665435
 20
178.03406586518159
 11
298.40374096019849
 21
178.03406586518159
  0
LINE
  8
_1-2_
  6
CONTINUOUS
 62
    7
 10
297.92786469330662
 20
178.03406586518159
 11
298.335051665435
 21
178.03406586518159
  0
LINE
  8
_1-2_
  6
CONTINUOUS
 62
    7
 10
281.92786139410896
 20
176.63406372070313
 11
294.9278547957137
 21
176.63406372070313
  0
LINE
  8
_1-2_
  6
CONTINUOUS
 62
    7
 10
263.52786502322635
 20
176.63406372070313
 11
264.52786832242401
 21
174.23405827702703
  0
LINE
  8
_1-2_
  6
CONTINUOUS
 62
    7
 10
265.52787162162161
 20
174.23405827702703
 11
266.52785017683703
 21
176.63406372070313
  0
LINE
  8
_1-2_
  6
CONTINUOUS
 62
    7
 10
278.92785149651604
 20
176.63406372070313
 11
279.9278547957137
 21
174.23405827702703
  0
LINE
  8
_1-2_
  6
CONTINUOUS
 62
    7
 10
280.92785809491136
 20
174.23405827702703
 11
281.92786139410896
 21
176.63406372070313
  0
LINE
  8
_1-2_
  6
CONTINUOUS
 62
    7
 10
294.9278547957137
 20
176.63406372070313
 11
295.92785809491136
 21
174.23405827702703
  0
LINE
  8
_1-2_
  6
CONTINUOUS
 62
    7
 10
297.92786469330662
 20
178.03406586518159
 11
302.72785083667651
 21
178.03406586518159
  0
LINE
  8
_1-2_
  6
CONTINUOUS
 62
    7
 10
264.52786832242401
 20
174.23405827702703
 11
265.52787162162161
 21
174.23405827702703
  0
LINE
  8
_1-2_
  6
CONTINUOUS
 62
    7
 10
279.9278547957137
 20
174.23405827702703
 11
280.92785809491136
 21
174.23405827702703
  0
LINE
  8
_1-2_
  6
CONTINUOUS
 62
    7
 10
296.92786139410896
 20
174.23405827702703
 11
297.22617484427786
 21
175.36762959248313
  0
LINE
  8
_1-2_
  6
CONTINUOUS
 62
    7
 10
297.2292183540963
 20
175.37924689215583
 11
297.92786469330662
 21
178.03406586518159
  0
LINE
  8
_1-2_
  6
CONTINUOUS
 62
    7
 10
295.92785809491136
 20
174.23405827702703
 11
296.92786139410896
 21
174.23405827702703
  0
LINE
  8
_1-2_
  6
CONTINUOUS
 62
    7
 10
248.25724008921031
 20
176.63406372070313
 11
263.52786502322635
 21
176.63406372070313
  0
LINE
  8
_1-2_
  6
CONTINUOUS
 62
    7
 10
266.52785017683703
 20
176.63406372070313
 11
278.92785149651604
 21
176.63406372070313
  0
LINE
  8
_1-2_
  6
CONTINUOUS
 62
    7
 10
245.52785512563347
 20
179.6340612463049
 11
245.52785512563347
 21
175.6340604215055
  0
LINE
  8
_1-2_
  6
CONTINUOUS
 62
    7
 10
246.57742062130492
 20
174.5119331978463
 11
247.75102770006336
 21
176.35618879988388
  0
LINE
  8
_1-2_
  6
CONTINUOUS
 62
    7
 10
237.72785908467063
 20
176.23406487542232
 11
238.72786238386826
 21
176.23406487542232
  0
LINE
  8
_1-2_
  6
CONTINUOUS
 62
    7
 10
238.72786238386826
 20
176.23406487542232
 11
238.72786238386826
 21
175.6340604215055
  0
LINE
  8
_1-2_
  6
CONTINUOUS
 62
    7
 10
237.72785908467063
 20
176.23406487542232
 11
237.72785908467063
 21
174.23405827702703
  0
LINE
  8
_1-2_
  6
CONTINUOUS
 62
    7
 10
246.07120823215794
 20
174.23405827702703
 11
237.72785908467063
 21
174.23405827702703
  0
LINE
  8
_1-2_
  6
CONTINUOUS
 62
    7
 10
241.22787063186234
 20
176.23406487542232
 11
242.02786832242401
 21
176.23406487542232
  0
LINE
  8
_1-2_
  6
CONTINUOUS
 62
    7
 10
241.22787063186234
 20
176.23406487542232
 11
241.22787063186234
 21
175.6340604215055
  0
LINE
  8
_1-2_
  6
CONTINUOUS
 62
    7
 10
242.02786832242401
 20
176.23406487542232
 11
242.02786832242401
 21
175.6340604215055
  0
LINE
  8
_1-2_
  6
CONTINUOUS
 62
    7
 10
242.02786832242401
 20
175.6340604215055
 11
245.52785512563347
 21
175.6340604215055
  0
LINE
  8
_1-2_
  6
CONTINUOUS
 62
    7
 10
238.72786238386826
 20
175.6340604215055
 11
241.22787063186234
 21
175.6340604215055
  0
LINE
  8
_1-2_
  6
CONTINUOUS
 62
    7
 10
306.72786403346709
 20
179.6340612463049
 11
306.72786403346709
 21
178.03406586518159
  0
LINE
  8
_1-1_
  6
CONTINUOUS
 62
    7
 10
337.92787294130068
 20
176.43405811206716
 11
351.72788877744932
 21
176.43405811206716
  0
LINE
  8
_1-1_
  6
CONTINUOUS
 62
    7
 10
314.72786568306589
 20
176.43405811206716
 11
319.32787096178214
 21
176.43405811206716
  0
LINE
  8
_1-1_
  6
CONTINUOUS
 62
    7
 10
320.72788547825172
 20
176.43405811206716
 11
336.52788316881339
 21
176.43405811206716
  0
LINE
  8
_1-1_
  6
CONTINUOUS
 62
    7
 10
306.72786403346709
 20
179.6340612463049
 11
306.72786403346709
 21
176.63406372070313
  0
LINE
  8
_1-1_
  6
CONTINUOUS
 62
    7
 10
303.92785974451016
 20
176.63406372070313
 11
306.72786403346709
 21
176.63406372070313
  0
LINE
  8
_1-1_
  6
CONTINUOUS
 62
    7
 10
306.72786403346709
 20
179.6340612463049
 11
306.72786403346709
 21
177.2340558026288
  0
LINE
  8
_1-1_
  6
CONTINUOUS
 62
    7
 10
306.72786403346709
 20
179.6340612463049
 11
306.72786403346709
 21
177.2340558026288
  0
LINE
  8
_1-1_
  6
CONTINUOUS
 62
    7
 10
314.72786568306589
 20
176.43405811206716
 11
314.32337580500422
 21
177.43406141126479
  0
LINE
  8
_1-1_
  6
CONTINUOUS
 62
    7
 10
351.72788877744932
 20
176.43405811206716
 11
351.72788877744932
 21
162.63405464790964
  0
LINE
  8
_1-1_
  6
CONTINUOUS
 62
    7
 10
354.12788184913433
 20
162.63405464790964
 11
351.72788877744932
 21
162.63405464790964
  0
LINE
  8
_1-1_
  6
CONTINUOUS
 62
    7
 10
354.72787393106
 20
163.23405910182643
 11
354.72787393106
 21
179.6340612463049
  0
LINE
  8
_1-1_
  6
CONTINUOUS
 62
    7
 10
354.12788184913433
 20
162.63405464790964
 11
354.72787393106
 21
163.23405910182643
  0
LINE
  8
_1-1_
  6
CONTINUOUS
 62
    7
 10
354.72787393106
 20
179.6340612463049
 11
349.73453831028297
 21
179.6340612463049
  0
LINE
  8
_1-1_
  6
CONTINUOUS
 62
    7
 10
345.41755470069683
 20
179.6340612463049
 11
306.72786403346709
 21
179.6340612463049
  0
LINE
  8
_1-1_
  6
CONTINUOUS
 62
    7
 10
306.72786403346709
 20
179.6340612463049
 11
306.72786403346709
 21
177.2340558026288
  0
LINE
  8
_1-1_
  6
CONTINUOUS
 62
    7
 10
306.72786403346709
 20
179.6340612463049
 11
306.72786403346709
 21
177.2340558026288
  0
LINE
  8
_1-1_
  6
CONTINUOUS
 62
    7
 10
299.72786568306589
 20
177.2340558026288
 11
300.72786898226354
 21
177.2340558026288
  0
LINE
  8
_1-1_
  6
CONTINUOUS
 62
    7
 10
300.72786898226354
 20
177.2340558026288
 11
300.72786898226354
 21
176.63406372070313
  0
LINE
  8
_1-1_
  6
CONTINUOUS
 62
    7
 10
303.12786205394849
 20
177.2340558026288
 11
303.92785974451016
 21
177.2340558026288
  0
LINE
  8
_1-1_
  6
CONTINUOUS
 62
    7
 10
303.12786205394849
 20
177.2340558026288
 11
303.12786205394849
 21
176.63406372070313
  0
LINE
  8
_1-1_
  6
CONTINUOUS
 62
    7
 10
303.92785974451016
 20
177.2340558026288
 11
303.92785974451016
 21
176.63406372070313
  0
LINE
  8
_1-1_
  6
CONTINUOUS
 62
    7
 10
300.72786898226354
 20
176.63406372070313
 11
303.12786205394849
 21
176.63406372070313
  0
LINE
  8
_1-1_
  6
CONTINUOUS
 62
    7
 10
299.72786568306589
 20
177.2340558026288
 11
299.72786568306589
 21
175.23406157622466
  0
LINE
  8
_1-1_
  6
CONTINUOUS
 62
    7
 10
307.27124188397386
 20
175.23406157622466
 11
299.72786568306589
 21
175.23406157622466
  0
LINE
  8
_1-1_
  6
CONTINUOUS
 62
    7
 10
307.77742952913854
 20
175.51193649704393
 11
308.95103660789698
 21
177.35617972709039
  0
LINE
  8
_1-1_
  6
CONTINUOUS
 62
    7
 10
314.32337580500422
 20
177.43406141126479
 11
309.01002626161318
 21
177.43406141126479
  0
LINE
  8
_1-1_
  6
CONTINUOUS
 62
    7
 10
319.52787657041807
 20
174.23405827702703
 11
320.52787986961573
 21
174.23405827702703
  0
LINE
  8
_1-1_
  6
CONTINUOUS
 62
    7
 10
336.72788877744932
 20
174.23405827702703
 11
337.72789207664698
 21
174.23405827702703
  0
LINE
  8
_1-1_
  6
CONTINUOUS
 62
    7
 10
337.92787294130068
 20
176.43405811206716
 11
337.72789207664698
 21
174.23405827702703
  0
LINE
  8
_1-1_
  6
CONTINUOUS
 62
    7
 10
336.72788877744932
 20
174.23405827702703
 11
336.52788316881339
 21
176.43405811206716
  0
LINE
  8
_1-1_
  6
CONTINUOUS
 62
    7
 10
320.72788547825172
 20
176.43405811206716
 11
320.52787986961573
 21
174.23405827702703
  0
LINE
  8
_1-1_
  6
CONTINUOUS
 62
    7
 10
319.52787657041807
 20
174.23405827702703
 11
319.32787096178214
 21
176.43405811206716
  0
LINE
  8
_1-2_
  6
CONTINUOUS
 62
    7
 10
149.42110216295399
 20
177.91294407200169
 11
181.0482911805849
 21
91.017985988307643
  0
LINE
  8
_1-2_
  6
CONTINUOUS
 62
    7
 10
181.0482911805849
 20
91.017985988307643
 11
186.97353466137037
 21
91.017985988307643
  0
LINE
  8
_0-1_
  6
CONTINUOUS
 62
    7
 10
168.30932204787797
 20
126.01798392630913
 11
186.97353466137037
 21
126.01798392630913
  0
LINE
  8
_0-1_
  6
CONTINUOUS
 62
    7
 10
170.85711092562289
 20
119.01798557590794
 11
186.97353466137037
 21
119.01798557590794
  0
LINE
  8
_0-1_
  6
CONTINUOUS
 62
    7
 10
173.40492454735011
 20
112.01798722550676
 11
186.97353466137037
 21
112.01798722550676
  0
LINE
  8
_0-1_
  6
CONTINUOUS
 62
    7
 10
175.95271342509503
 20
105.01798887510559
 11
186.97353466137037
 21
105.01798887510559
  0
LINE
  8
_0-1_
  6
CONTINUOUS
 62
    7
 10
178.50050230283995
 20
98.017984338708828
 11
186.97353466137037
 21
98.017984338708828
  0
LINE
  8
_1-3_
  6
CONTINUOUS
 62
    7
 10
344.78668212890625
 20
131.95839546822214
 11
350.78667718010979
 21
131.95839546822214
  0
LINE
  8
_1-3_
  6
CONTINUOUS
 62
    7
 10
344.78668212890625
 20
143.11021134660052
 11
344.78668212890625
 21
131.95839546822214
  0
LINE
  8
_1-3_
  6
CONTINUOUS
 62
    7
 10
350.78667718010979
 20
143.11021134660052
 11
350.78667718010979
 21
131.95839546822214
  0
LINE
  8
_1-3_
  6
CONTINUOUS
 62
    7
 10
350.78667718010979
 20
131.95839546822214
 11
351.78668047930745
 21
131.95839546822214
  0
LINE
  8
_1-3_
  6
CONTINUOUS
 62
    7
 10
351.78668047930745
 20
143.11021134660052
 11
351.78668047930745
 21
131.95839546822214
  0
LINE
  8
_1-2_
  6
CONTINUOUS
 62
    7
 10
344.99163653399495
 20
172.10105277396539
 11
331.83100519953547
 21
208.25963200749578
  0
LINE
  8
_1-2_
  6
CONTINUOUS
 62
    7
 10
328.26950485641896
 20
194.13252546980576
 11
324.09858497413433
 21
194.13252546980576
  0
LINE
  8
_1-2_
  6
CONTINUOUS
 62
    7
 10
331.83100519953547
 20
208.25963200749578
 11
327.35407648859797
 21
208.25963200749578
  0
LINE
  8
_1-2_
  6
CONTINUOUS
 62
    7
 10
334.25811767578125
 20
177.67898971970018
 11
328.26950485641896
 21
194.13252546980576
  0
LINE
  8
_0-1_
  6
CONTINUOUS
 62
    7
 10
342.04081767314193
 20
154.49533823374156
 11
329.27000303526182
 21
119.40783938846073
  0
LINE
  8
_0-1_
  6
CONTINUOUS
 62
    7
 10
329.27000303526182
 20
119.40783938846073
 11
325.82460145692568
 21
119.40783938846073
  0
LINE
  8
_1-1_
  6
CONTINUOUS
 62
    7
 10
61.927828402132604
 20
179.6340612463049
 11
61.927828402132604
 21
178.03406586518159
  0
LINE
  8
_1-1_
  6
CONTINUOUS
 62
    7
 10
60.527813885663022
 20
178.03406586518159
 11
60.527813885663022
 21
177.83406025654563
  0
LINE
  8
_1-1_
  6
CONTINUOUS
 62
    7
 10
61.327811576224661
 20
178.03406586518159
 11
61.327811576224661
 21
177.83406025654563
  0
LINE
  8
_1-1_
  6
CONTINUOUS
 62
    7
 10
58.527807287267734
 20
178.03406586518159
 11
58.527807287267734
 21
177.83406025654563
  0
LINE
  8
_1-1_
  6
CONTINUOUS
 62
    7
 10
57.927815205342057
 20
178.03406586518159
 11
57.927815205342057
 21
177.83406025654563
  0
LINE
  8
_1-1_
  6
CONTINUOUS
 62
    7
 10
57.927815205342057
 20
177.83406025654563
 11
58.527807287267734
 21
177.83406025654563
  0
LINE
  8
_1-1_
  6
CONTINUOUS
 62
    7
 10
60.527813885663022
 20
177.83406025654563
 11
61.327811576224661
 21
177.83406025654563
  0
LINE
  8
_1-1_
  6
CONTINUOUS
 62
    7
 10
58.527807287267734
 20
178.03406586518159
 11
60.527813885663022
 21
178.03406586518159
  0
LINE
  8
_1-1_
  6
CONTINUOUS
 62
    7
 10
61.327811576224661
 20
178.03406586518159
 11
61.927828402132604
 21
178.03406586518159
  0
LINE
  8
_1-1_
  6
CONTINUOUS
 62
    7
 10
53.535003662109375
 20
178.03406586518159
 11
53.60370532886401
 21
178.03406586518159
  0
LINE
  8
_1-1_
  6
CONTINUOUS
 62
    7
 10
53.127816689980989
 20
178.03406586518159
 11
53.535003662109375
 21
178.03406586518159
  0
LINE
  8
_1-1_
  6
CONTINUOUS
 62
    7
 10
37.127813390783359
 20
176.63406372070313
 11
50.127819164379218
 21
176.63406372070313
  0
LINE
  8
_1-1_
  6
CONTINUOUS
 62
    7
 10
34.127815865181589
 20
176.63406372070313
 11
35.127819164379218
 21
174.23405827702703
  0
LINE
  8
_1-1_
  6
CONTINUOUS
 62
    7
 10
36.127822463576877
 20
174.23405827702703
 11
37.127813390783359
 21
176.63406372070313
  0
LINE
  8
_1-1_
  6
CONTINUOUS
 62
    7
 10
50.127819164379218
 20
176.63406372070313
 11
51.127822463576877
 21
174.23405827702703
  0
LINE
  8
_1-1_
  6
CONTINUOUS
 62
    7
 10
53.127816689980989
 20
178.03406586518159
 11
57.927815205342057
 21
178.03406586518159
  0
LINE
  8
_1-1_
  6
CONTINUOUS
 62
    7
 10
35.127819164379218
 20
174.23405827702703
 11
36.127822463576877
 21
174.23405827702703
  0
LINE
  8
_1-1_
  6
CONTINUOUS
 62
    7
 10
52.127813390783359
 20
174.23405827702703
 11
52.426126840952293
 21
175.36762959248313
  0
LINE
  8
_1-1_
  6
CONTINUOUS
 62
    7
 10
52.429182722761823
 20
175.37924689215583
 11
53.127816689980989
 21
178.03406586518159
  0
LINE
  8
_1-1_
  6
CONTINUOUS
 62
    7
 10
51.127822463576877
 20
174.23405827702703
 11
52.127813390783359
 21
174.23405827702703
  0
LINE
  8
_1-1_
  6
CONTINUOUS
 62
    7
 10
31.905543353106538
 20
176.63406372070313
 11
34.127815865181589
 21
176.63406372070313
  0
LINE
  8
_1-1_
  6
CONTINUOUS
 62
    7
 10
31.905543353106538
 20
179.6340612463049
 11
61.927828402132604
 21
179.6340612463049
  0
ARC
  8
_1-1_
  6
CONTINUOUS
 62
    7
 10
418.66981300147808
 20
374.75013526710308
 40
2.6545699867042338
 50
215.59773254394531
 51
324.40225219726568
  0
ARC
  8
_1-1_
  6
CONTINUOUS
 62
    7
 10
378.36500837996203
 20
369.40494021853885
 40
0.6000000077324945
 50
270
 51
327.52879333496094
  0
ARC
  8
_1-1_
  6
CONTINUOUS
 62
    7
 10
380.55101549303214
 20
370.6049491263725
 40
0.6000000077324945
 50
138.18965148925784
 51
147.52879333496094
  0
ARC
  8
_1-2_
  6
CONTINUOUS
 62
    7
 10
64.657200993718334
 20
176.03405926678633
 40
0.6000000077324945
 50
90
 51
147.52879333496094
  0
ARC
  8
_1-2_
  6
CONTINUOUS
 62
    7
 10
62.471181508657082
 20
174.83406273094386
 40
0.6000000077324945
 50
270
 51
327.52879333496094
  0
ARC
  8
_1-2_
  6
CONTINUOUS
 62
    7
 10
125.85720990155195
 20
176.03405926678633
 40
0.6000000077324945
 50
90
 51
147.52879333496094
  0
ARC
  8
_1-2_
  6
CONTINUOUS
 62
    7
 10
123.67119041649072
 20
174.83406273094386
 40
0.6000000077324945
 50
270
 51
327.52879333496094
  0
ARC
  8
_1-2_
  6
CONTINUOUS
 62
    7
 10
187.05721880938557
 20
176.03405926678633
 40
0.6000000077324945
 50
90
 51
147.52879333496094
  0
ARC
  8
_1-2_
  6
CONTINUOUS
 62
    7
 10
184.87119932432432
 20
174.83406273094386
 40
0.6000000077324945
 50
270
 51
327.52879333496094
  0
ARC
  8
_1-2_
  6
CONTINUOUS
 62
    7
 10
248.25724008921031
 20
176.03405926678633
 40
0.6000000077324945
 50
90
 51
147.52879333496094
  0
ARC
  8
_1-2_
  6
CONTINUOUS
 62
    7
 10
246.07120823215794
 20
174.83406273094386
 40
0.6000000077324945
 50
270
 51
327.52879333496094
  0
ARC
  8
_1-1_
  6
CONTINUOUS
 62
    7
 10
347.5760465054899
 20
181.17926107870568
 40
2.6545699867042338
 50
215.59773254394531
 51
324.40225219726568
  0
ARC
  8
_1-1_
  6
CONTINUOUS
 62
    7
 10
307.27124188397386
 20
175.83405365815034
 40
0.6000000077324945
 50
270
 51
327.52879333496094
  0
ARC
  8
_1-1_
  6
CONTINUOUS
 62
    7
 10
309.45724899704396
 20
177.03406256598396
 40
0.6000000077324945
 50
138.18965148925784
 51
147.52879333496094
  0
TEXT
  8
_0-0_
 62
    7
 10
147.56756962956609
 20
22.702702702702709
 40
2.5
 41
1
 50
0
  1
図名
  0
TEXT
  8
_0-0_
 62
    7
 10
147.56756962956609
 20
12.972972972972968
 40
2.5
 41
1
 50
0
  1
縮尺
  0
TEXT
  8
_0-0_
 62
    7
 10
382.77784605284
 20
21.243871740392734
 40
2.5
 41
1
 50
0
  1
ＮＯ
  0
TEXT
  8
_0-0_
 62
    7
 10
31.231870393495313
 20
18.589955922719582
 40
2.5
 41
1
 50
0
  1
木造
  0
TEXT
  8
_0-0_
 62
    7
 10
20.270270012520456
 20
22.702702702702709
 40
2.5
 41
1
 50
0
  1
Ｆ形
  0
TEXT
  8
_0-0_
 62
    7
 10
389.99062615471917
 20
16.178650211643514
 40
2.5
 41
1
 50
0
  1
Ｆ
  0
TEXT
  8
_0-0_
 62
    7
 10
171.37221877639359
 20
12.362518826046511
 40
2.5
 41
1
 50
0
  1
1/5
  0
TEXT
  8
_0-1_
 62
    7
 10
191.36879792084568
 20
124.07464104729731
 40
2.5
 41
1
 50
0
  1
桟瓦
  0
TEXT
  8
_0-1_
 62
    7
 10
191.36880823083828
 20
109.6396946262669
 40
2.5
 41
1
 50
0
  1
流し桟
  0
TEXT
  8
_0-1_
 62
    7
 10
191.36879173485011
 20
95.86843748350401
 40
2.5
 41
1
 50
0
  1
野地板　　ｔ＝12
  0
TEXT
  8
_0-1_
 62
    7
 10
191.36879173485011
 20
89.06576620565879
 40
2.5
 41
1
 50
0
  1
垂木　　　60ｘ60
  0
TEXT
  8
_1-3_
 62
    7
 10
346.53667965450802
 20
132.45839711782097
 40
2.5
 41
1
 50
0
  1
30
  0
TEXT
  8
_1-3_
 62
    7
 10
352.63742395349453
 20
132.35441053235854
 40
2.5
 41
1
 50
0
  1
5
  0
TEXT
  8
_1-2_
 62
    7
 10
315.1901822476774
 20
207.31866784997891
 40
2.5
 41
1
 50
0
  1
登り淀
  0
TEXT
  8
_1-2_
 62
    7
 10
310.49007106471709
 20
203.47311896246833
 40
2.5
 41
1
 50
0
  1
瓦桟木と同じ高さ
  0
TEXT
  8
_1-2_
 62
    7
 10
310.91736252243459
 20
192.93345683329815
 40
2.5
 41
1
 50
0
  1
一体右袖瓦
  0
TEXT
  8
_0-1_
 62
    7
 10
316.30853601404141
 20
117.85937335040119
 40
2.5
 41
1
 50
0
  1
破風板
  0
TEXT
  8
_1-3_
 62
    7
 10
398.75612413561021
 20
13.652305087527708
 40
2.5
 41
1
 50
0
  1
8
  0
TEXT
  8
_1-3_
 62
    7
 10
45.397582698512736
 20
13.77361400707349
 40
2.5
 41
1
 50
0
  1
袖　6
  0
POINT
  8
_1-3_
 62
    7
 10
344.78668212890625
 20
131.95839546822214
  0
POINT
  8
_1-3_
 62
    7
 10
350.78667718010979
 20
131.95839546822214
  0
POINT
  8
_1-3_
 62
    7
 10
351.78668047930745
 20
131.95839546822214
  0
POINT
  8
_1-3_
 62
    7
 10
306.72786403346709
 20
218.38352745424294
  0
POINT
  8
_1-3_
 62
    7
 10
245.52785512563347
 20
218.38352745424294
  0
LINE
  8
_1-3_
  6
CONTINUOUS
 62
    7
 10
306.72786403346709
 20
218.38352745424294
 11
306.72786403346709
 21
189.0324459234609
  0
LINE
  8
_1-3_
  6
CONTINUOUS
 62
    7
 10
245.52785512563347
 20
218.38352745424294
 11
245.52785512563347
 21
189.0324459234609
  0
LINE
  8
_1-3_
  6
CONTINUOUS
 62
    7
 10
306.72786403346709
 20
218.38352745424294
 11
245.52785512563347
 21
218.38352745424294
  0
TEXT
  8
_1-3_
 62
    7
 10
274.25285957955026
 20
218.88352745424294
 40
2.5
 41
1
 50
0
  1
306
  0
POINT
  8
_1-3_
 62
    7
 10
184.32784621779984
 20
218.38352745424294
  0
LINE
  8
_1-3_
  6
CONTINUOUS
 62
    7
 10
184.32784621779984
 20
218.38352745424294
 11
184.32784621779984
 21
189.0324459234609
  0
LINE
  8
_1-3_
  6
CONTINUOUS
 62
    7
 10
245.52785512563347
 20
218.38352745424294
 11
184.32784621779984
 21
218.38352745424294
  0
TEXT
  8
_1-3_
 62
    7
 10
213.05285067171664
 20
218.88352745424294
 40
2.5
 41
1
 50
0
  1
306
  0
POINT
  8
_1-3_
 62
    7
 10
123.12783730996622
 20
218.38352745424294
  0
LINE
  8
_1-3_
  6
CONTINUOUS
 62
    7
 10
123.12783730996622
 20
218.38352745424294
 11
123.12783730996622
 21
189.0324459234609
  0
LINE
  8
_1-3_
  6
CONTINUOUS
 62
    7
 10
184.32784621779984
 20
218.38352745424294
 11
123.12783730996622
 21
218.38352745424294
  0
TEXT
  8
_1-3_
 62
    7
 10
151.85284176388302
 20
218.88352745424294
 40
2.5
 41
1
 50
0
  1
306
  0
POINT
  8
_1-3_
 62
    7
 10
61.927828402132604
 20
218.38352745424294
  0
LINE
  8
_1-3_
  6
CONTINUOUS
 62
    7
 10
61.927828402132604
 20
218.38352745424294
 11
61.927828402132604
 21
189.0324459234609
  0
LINE
  8
_1-3_
  6
CONTINUOUS
 62
    7
 10
123.12783730996622
 20
218.38352745424294
 11
61.927828402132604
 21
218.38352745424294
  0
TEXT
  8
_1-3_
 62
    7
 10
90.652832856049415
 20
218.88352745424294
 40
2.5
 41
1
 50
0
  1
306
  0
TEXT
  8
_1-3_
 62
    7
 10
191.36880204484271
 20
116.77420126425254
 40
2.5
 41
1
 50
0
  1
瓦桟　　１５×２１　以上　（防腐処理）
  0
TEXT
  8
_1-3_
 62
    7
 10
201.89251859499649
 20
113.09240489210578
 40
2.5
 41
1
 50
0
  1
※　地域により瓦桟木の大きさは、異なります
  0
TEXT
  8
_1-3_
 62
    7
 10
191.36879173485011
 20
102.67110876134925
 40
2.5
 41
1
 50
0
  1
下葺き材　　アスファルトルーフィング９４０
  0
ENDSEC
  0
EOF
