  0
SECTION
  2
HEADER
  9
$ACADVER
  1
AC1009
  9
$INSBASE
 10
0
 20
0
 30
0
  9
$EXTMIN
 10
0
 20
0
  9
$EXTMAX
 10
420
 20
297
  9
$LIMMIN
 10
0
 20
0
  9
$LIMMAX
 10
420
 20
297
  9
$LTSCALE
 40
1
  0
ENDSEC
  0
SECTION
  2
TABLES
  0
TABLE
  2
LTYPE
 70
     9
  0
LTYPE
  2
CONTINUOUS
 70
    64
  3
実線
 72
    65
 73
     0
 40
0.0
  0
LTYPE
  2
DASHED1
 70
    64
  3
--  --  --  --  --  --  --  --  
 72
    65
 73
     2
 40
2.5
 49
1.25
 49
-1.25
  0
LTYPE
  2
DASHED2
 70
    64
  3
----    ----    ----    ----    
 72
    65
 73
     2
 40
5.0
 49
2.5
 49
-2.5
  0
LTYPE
  2
DASHED3
 70
    64
  3
------  ------  ------  ------  
 72
    65
 73
     2
 40
5.0
 49
3.75
 49
-1.25
  0
LTYPE
  2
CENTER1
 70
    64
  3
----- - ----- - ----- - ----- - 
 72
    65
 73
     4
 40
10.0
 49
6.25
 49
-1.25
 49
1.25
 49
-1.25
  0
LTYPE
  2
CENTER2
 70
    64
  3
----------  --  ----------  --  
 72
    65
 73
     4
 40
20.0
 49
12.5
 49
-2.5
 49
2.5
 49
-2.5
  0
LTYPE
  2
PHANTOM1
 70
    64
  3
--- - - --- - - --- - - --- - - 
 72
    65
 73
     6
 40
10.0
 49
3.25
 49
-1.25
 49
1.25
 49
-1.25
 49
1.25
 49
-1.25
  0
LTYPE
  2
PHANTOM2
 70
    64
  3
--------  -  -  --------  -  -  
 72
    65
 73
     6
 40
20.0
 49
10.0
 49
-2.5
 49
1.25
 49
-2.5
 49
1.25
 49
-2.5
  0
LTYPE
  2
DOT
 70
    64
  3
-   -   -   -   -   -   -   -   
 72
    65
 73
     2
 40
2.5
 49
0.625
 49
-1.875
  0
LTYPE
  2
DUMMY
 70
    64
  3
ダミー
 72
    65
 73
     0
 40
0.0
  0
LTYPE
  2
RAND1
 70
    64
  3
ランダム線1
 72
    65
 73
     4
 40
10.0
 49
1.0
 49
-2.0
 49
3.0
 49
-4.0
  0
LTYPE
  2
RAND2
 70
    64
  3
ランダム線2
 72
    65
 73
     4
 40
14.0
 49
2.0
 49
-3.0
 49
4.0
 49
-5.0
  0
LTYPE
  2
RAND3
 70
    64
  3
ランダム線3
 72
    65
 73
     4
 40
18.0
 49
3.0
 49
-4.0
 49
5.0
 49
-6.0
  0
LTYPE
  2
RAND4
 70
    64
  3
ランダム線4
 72
    65
 73
     4
 40
22.0
 49
4.0
 49
-5.0
 49
6.0
 49
-7.0
  0
LTYPE
  2
RAND5
 70
    64
  3
ランダム線5
 72
    65
 73
     4
 40
26.0
 49
5.0
 49
-6.0
 49
7.0
 49
-8.0
  0
LTYPE
  2
LONG1
 70
    64
  3
----------  --  ----------  --  
 72
    65
 73
     4
 40
40.0
 49
32.5
 49
-2.5
 49
2.5
 49
-2.5
  0
LTYPE
  2
LONG2
 70
    64
  3
--------  -  -  --------  -  -  
 72
    65
 73
     6
 40
40.0
 49
30.0
 49
-2.5
 49
1.25
 49
-2.5
 49
1.25
 49
-2.5
  0
LTYPE
  2
LONG3
 70
    64
  3
+++++++++++++++..+++++++++++++++
 72
    65
 73
     2
 40
40.0
 49
37.5
 49
-2.5
  0
LTYPE
  2
LONG4
 70
    64
  3
+++++++++++++++..+++++++++++++++
 72
    65
 73
     2
 40
80.0
 49
75.0
 49
-5.0
  0
LTYPE
  2
LONG5
 70
    64
  3
----------  --  ----------  --  
 72
    65
 73
     4
 40
60.0
 49
37.5
 49
-7.5
 49
7.5
 49
-7.5
  0
LTYPE
  2
dashed
 70
   64
  3
-------   -------------   ------
 72
   65
 73
    2
 40
7.5
 49
6
 49
-1.5
  0
LTYPE
  2
dashed_spaced
 70
   64
  3
----        --------        ----
 72
   65
 73
    2
 40
12
 49
6
 49
-6
  0
LTYPE
  2
long_dashed_dotted
 70
   64
  3
------------- --- --------------
 72
   65
 73
    4
 40
15.25
 49
12
 49
-1.5
 49
0.25
 49
-1.5
  0
LTYPE
  2
long_dashed_double-dotted
 70
   64
  3
----------- --- --- ------------
 72
   65
 73
    6
 40
17
 49
12
 49
-1.5
 49
0.25
 49
-1.5
 49
0.25
 49
-1.5
  0
LTYPE
  2
long_dashed_triplicate-dotted
 70
   64
  3
--------- --- --- --- ----------
 72
   65
 73
    8
 40
18.75
 49
12
 49
-1.5
 49
0.25
 49
-1.5
 49
0.25
 49
-1.5
 49
0.25
 49
-1.5
  0
LTYPE
  2
dotted
 70
   64
  3
   -       -       -       -    
 72
   65
 73
    2
 40
1.75
 49
0.25
 49
-1.5
  0
LTYPE
  2
chain
 70
   64
  3
-------------- -- --------------
 72
   65
 73
    4
 40
18.5
 49
12
 49
-1.5
 49
3.5
 49
-1.5
  0
LTYPE
  2
chain_double_dash
 70
   64
  3
------------ -- -- -------------
 72
   65
 73
    6
 40
23.5
 49
12
 49
-1.5
 49
3.5
 49
-1.5
 49
3.5
 49
-1.5
  0
LTYPE
  2
dashed_dotted
 70
   64
  3
-----------     -     ----------
 72
   65
 73
    4
 40
9.25
 49
6
 49
-1.5
 49
0.25
 49
-1.5
  0
LTYPE
  2
double-dashed_dotted
 70
   64
  3
------   -----------   -   -----
 72
   65
 73
    6
 40
16.75
 49
6
 49
-1.5
 49
6
 49
-1.5
 49
0.25
 49
-1.5
  0
LTYPE
  2
dashed_double-dotted
 70
   64
  3
---------    -    -    ---------
 72
   65
 73
    6
 40
11
 49
6
 49
-1.5
 49
0.25
 49
-1.5
 49
0.25
 49
-1.5
  0
LTYPE
  2
double-dashed_double-dotted
 70
   64
  3
-----   ---------   -   -   ----
 72
   65
 73
    8
 40
18.5
 49
6
 49
-1.5
 49
6
 49
-1.5
 49
0.25
 49
-1.5
 49
0.25
 49
-1.5
  0
LTYPE
  2
dashed_triplicate-dotted
 70
   64
  3
-------    -    -    -    ------
 72
   65
 73
    8
 40
12.75
 49
6
 49
-1.5
 49
0.25
 49
-1.5
 49
0.25
 49
-1.5
 49
0.25
 49
-1.5
  0
LTYPE
  2
double-dashed_triplicate-dotted
 70
   64
  3
-----  ---------  -  -  -  -----
 72
   65
 73
   10
 40
20.25
 49
6
 49
-1.5
 49
6
 49
-1.5
 49
0.25
 49
-1.5
 49
0.25
 49
-1.5
 49
0.25
 49
-1.5
  0
LTYPE
  2
undefined
 70
   64
  3
--------------------------------
 72
   65
 73
    0
 40
0
  0
LTYPE
  2
DOT_17
 70
   64
  3
--             ---             -
 72
   65
 73
    2
 40
5
 49
1
 49
-4
  0
LTYPE
  2
DASHED
 70
   64
  3
---          ------          ---
 72
   65
 73
    2
 40
5
 49
2
 49
-3
  0
LTYPE
  2
DASHED2_19
 70
   64
  3
---          ------          ---
 72
   65
 73
    2
 40
10
 49
4
 49
-6
  0
LTYPE
  2
CENTER
 70
   64
  3
----------    ----    ----------
 72
   65
 73
    4
 40
9
 49
6
 49
-1
 49
1
 49
-1
  0
LTYPE
  2
CENTER2_21
 70
   64
  3
----------    ----    ----------
 72
   65
 73
    4
 40
18
 49
12
 49
-2
 49
2
 49
-2
  0
LTYPE
  2
PHANTOM
 70
   64
  3
---------   ---   ---   --------
 72
   65
 73
    6
 40
10
 49
5
 49
-1
 49
1
 49
-1
 49
1
 49
-1
  0
LTYPE
  2
PHANTOM2_23
 70
   64
  3
------    ----    ----    ------
 72
   65
 73
    6
 40
16
 49
6
 49
-2
 49
2
 49
-2
 49
2
 49
-2
  0
LTYPE
  2
HIDDEN
 70
   64
  3
--             ---             -
 72
   65
 73
    2
 40
2.5
 49
0.5
 49
-2
  0
ENDTAB
  0
TABLE
  2
STYLE
  5
3
100
AcDbSymbolTable
 70
     1
  0
STYLE
  5
10
100
AcDbSymbolTableRecord
100
AcDbTextStyleTableRecord
  2
STANDARD
 70
     0
 40
0.0
 41
1.0
 50
0.0
 71
     0
 42
0.2
  3
txt
  4
bigfont.shx
  0
STYLE
  5
26
100
AcDbSymbolTableRecord
100
AcDbTextStyleTableRecord
  2
TATEGAKI
 70
    68
 40
0.0
 41
1.0
 50
0.0
 71
     0
 42
1.0
  3
txt
  4
bigfont.shx
  0
ENDTAB
  0
TABLE
  2
LAYER
 70
    7
  0
LAYER
  2
_0-0_
 70
   64
 62
    7
  6
CONTINUOUS
  0
LAYER
  2
_0-1_
 70
   64
 62
    7
  6
CONTINUOUS
  0
LAYER
  2
_1-0_
 70
   64
 62
    7
  6
CONTINUOUS
  0
LAYER
  2
_1-1_
 70
   64
 62
    7
  6
CONTINUOUS
  0
LAYER
  2
_1-2_
 70
   64
 62
    7
  6
CONTINUOUS
  0
LAYER
  2
_1-3_
 70
   64
 62
    7
  6
CONTINUOUS
  0
LAYER
  2
ADD_LINE
 70
   64
 62
    7
  6
CONTINUOUS
  0
ENDTAB
  0
ENDSEC
  0
SECTION
  2
BLOCKS
  0
ENDSEC
  0
SECTION
  2
ENTITIES
  0
LINE
  8
_0-0_
  6
CONTINUOUS
 62
    5
 10
12.432428308435391
 20
278.51351351351354
 11
412.43244892842063
 21
278.51351351351354
  0
LINE
  8
_0-0_
  6
CONTINUOUS
 62
    5
 10
412.43244892842063
 20
8.5135135135135158
 11
12.432428308435391
 21
8.5135135135135158
  0
LINE
  8
_0-0_
  6
CONTINUOUS
 62
    5
 10
412.43244892842063
 20
28.513511451515001
 11
12.432415936444272
 21
28.513511451515001
  0
LINE
  8
_0-0_
  6
CONTINUOUS
 62
    5
 10
377.43248192039698
 20
8.5135135135135158
 11
377.43248192039698
 21
28.513511451515001
  0
LINE
  8
_0-0_
  6
CONTINUOUS
 62
    5
 10
142.70271507469386
 20
28.513511451515001
 11
142.70271507469386
 21
8.5135135135135158
  0
LINE
  8
_0-0_
  6
CONTINUOUS
 62
    5
 10
220.54054054054055
 20
28.513511451515001
 11
220.54054054054055
 21
8.5135135135135158
  0
LINE
  8
_0-0_
  6
CONTINUOUS
 62
    5
 10
142.70271507469386
 20
18.513512482514244
 11
220.54054054054055
 21
18.513512482514244
  0
LINE
  8
_0-0_
  6
CONTINUOUS
 62
    5
 10
402.16218690614443
 20
24.324325870823216
 11
389.59456985061234
 21
11.756758303255651
  0
LINE
  8
_1-0_
  6
CONTINUOUS
 62
    7
 10
47.140552417652032
 20
171.2594728212099
 11
47.140552417652032
 21
170.65946836729307
  0
LINE
  8
_1-0_
  6
CONTINUOUS
 62
    7
 10
47.140552417652032
 20
170.65946836729307
 11
47.140552417652032
 21
171.2594728212099
  0
LINE
  8
_1-0_
  6
CONTINUOUS
 62
    7
 10
47.140552417652032
 20
171.2594728212099
 11
51.940538561021953
 21
171.2594728212099
  0
LINE
  8
_1-0_
  6
CONTINUOUS
 62
    7
 10
51.940538561021953
 20
171.2594728212099
 11
51.940538561021953
 21
170.65946836729307
  0
LINE
  8
_1-0_
  6
CONTINUOUS
 62
    7
 10
51.940538561021953
 20
170.65946836729307
 11
47.140552417652032
 21
170.65946836729307
  0
LINE
  8
_1-0_
  6
CONTINUOUS
 62
    7
 10
47.140552417652032
 20
171.2594728212099
 11
51.940538561021953
 21
170.65946836729307
  0
LINE
  8
_1-0_
  6
CONTINUOUS
 62
    7
 10
107.74054449957771
 20
170.65946836729307
 11
107.74054449957771
 21
171.2594728212099
  0
LINE
  8
_1-0_
  6
CONTINUOUS
 62
    7
 10
107.74054449957771
 20
171.2594728212099
 11
112.54053064294764
 21
171.2594728212099
  0
LINE
  8
_1-0_
  6
CONTINUOUS
 62
    7
 10
112.54053064294764
 20
171.2594728212099
 11
112.54053064294764
 21
170.65946836729307
  0
LINE
  8
_1-0_
  6
CONTINUOUS
 62
    7
 10
112.54053064294764
 20
170.65946836729307
 11
107.74054449957771
 21
170.65946836729307
  0
LINE
  8
_1-0_
  6
CONTINUOUS
 62
    7
 10
107.74054449957771
 20
171.2594728212099
 11
112.54053064294764
 21
170.65946836729307
  0
LINE
  8
_1-0_
  6
CONTINUOUS
 62
    7
 10
168.34053658150339
 20
170.65946836729307
 11
168.34053658150339
 21
171.2594728212099
  0
LINE
  8
_1-0_
  6
CONTINUOUS
 62
    7
 10
168.34053658150339
 20
171.2594728212099
 11
173.14052272487331
 21
171.2594728212099
  0
LINE
  8
_1-0_
  6
CONTINUOUS
 62
    7
 10
173.14052272487331
 20
171.2594728212099
 11
173.14052272487331
 21
170.65946836729307
  0
LINE
  8
_1-0_
  6
CONTINUOUS
 62
    7
 10
173.14052272487331
 20
170.65946836729307
 11
168.34053658150339
 21
170.65946836729307
  0
LINE
  8
_1-0_
  6
CONTINUOUS
 62
    7
 10
168.34053658150339
 20
171.2594728212099
 11
173.14052272487331
 21
170.65946836729307
  0
LINE
  8
_1-0_
  6
CONTINUOUS
 62
    7
 10
228.94052866342906
 20
170.65946836729307
 11
228.94052866342906
 21
171.2594728212099
  0
LINE
  8
_1-0_
  6
CONTINUOUS
 62
    7
 10
228.94052866342906
 20
171.2594728212099
 11
233.74051480679901
 21
171.2594728212099
  0
LINE
  8
_1-0_
  6
CONTINUOUS
 62
    7
 10
233.74051480679901
 20
171.2594728212099
 11
233.74051480679901
 21
170.65946836729307
  0
LINE
  8
_1-0_
  6
CONTINUOUS
 62
    7
 10
233.74051480679901
 20
170.65946836729307
 11
228.94052866342906
 21
170.65946836729307
  0
LINE
  8
_1-0_
  6
CONTINUOUS
 62
    7
 10
228.94052866342906
 20
171.2594728212099
 11
233.74051480679901
 21
170.65946836729307
  0
LINE
  8
_1-1_
  6
CONTINUOUS
 62
    3
 10
49.340539880701016
 20
179.85947892472552
 11
49.340539880701016
 21
176.25947694520693
  0
LINE
  8
_1-1_
  6
CONTINUOUS
 62
    3
 10
110.54052404455237
 20
179.85947892472552
 11
110.54052404455237
 21
177.45947348104943
  0
LINE
  8
_1-1_
  6
CONTINUOUS
 62
    3
 10
49.340539880701016
 20
179.85947892472552
 11
50.540548788534636
 21
179.85947892472552
  0
LINE
  8
_1-1_
  6
CONTINUOUS
 62
    3
 10
100.67831503378379
 20
179.85947892472552
 11
110.54052404455237
 21
179.85947892472552
  0
LINE
  8
_1-1_
  6
CONTINUOUS
 62
    3
 10
102.54052239495356
 20
177.45947348104943
 11
99.540512497360652
 21
174.25947034681167
  0
LINE
  8
_1-1_
  6
CONTINUOUS
 62
    3
 10
108.94052866342906
 20
177.45947348104943
 11
108.94052866342906
 21
177.05947463576859
  0
LINE
  8
_1-1_
  6
CONTINUOUS
 62
    3
 10
108.14053097286741
 20
177.45947348104943
 11
108.14053097286741
 21
177.05947463576859
  0
LINE
  8
_1-1_
  6
CONTINUOUS
 62
    3
 10
106.54053559174409
 20
177.45947348104943
 11
106.54053559174409
 21
177.05947463576859
  0
LINE
  8
_1-1_
  6
CONTINUOUS
 62
    3
 10
105.74053790118244
 20
177.45947348104943
 11
105.74053790118244
 21
177.05947463576859
  0
LINE
  8
_1-1_
  6
CONTINUOUS
 62
    3
 10
102.54052239495356
 20
177.45947348104943
 11
105.74053790118244
 21
177.45947348104943
  0
LINE
  8
_1-1_
  6
CONTINUOUS
 62
    3
 10
106.54053559174409
 20
177.45947348104943
 11
108.14053097286741
 21
177.45947348104943
  0
LINE
  8
_1-1_
  6
CONTINUOUS
 62
    3
 10
108.94052866342906
 20
177.45947348104943
 11
110.54052404455237
 21
177.45947348104943
  0
LINE
  8
_1-1_
  6
CONTINUOUS
 62
    3
 10
105.74053790118244
 20
177.05947463576859
 11
106.54053559174409
 21
177.05947463576859
  0
LINE
  8
_1-1_
  6
CONTINUOUS
 62
    3
 10
108.14053097286741
 20
177.05947463576859
 11
108.94052866342906
 21
177.05947463576859
  0
LINE
  8
_1-1_
  6
CONTINUOUS
 62
    3
 10
54.140550768053203
 20
177.25946787241344
 11
97.940517116237331
 21
177.25946787241344
  0
LINE
  8
_1-1_
  6
CONTINUOUS
 62
    3
 10
102.74052800358953
 20
176.8594690271326
 11
102.74052800358953
 21
174.25947034681167
  0
LINE
  8
_1-1_
  6
CONTINUOUS
 62
    3
 10
110.54052404455237
 20
179.85947892472552
 11
110.54052404455237
 21
176.25947694520693
  0
LINE
  8
_1-1_
  6
CONTINUOUS
 62
    3
 10
171.74050820840372
 20
179.85947892472552
 11
171.74050820840372
 21
177.45947348104943
  0
LINE
  8
_1-1_
  6
CONTINUOUS
 62
    3
 10
102.74052800358953
 20
174.25947034681167
 11
160.74050903320312
 21
174.25947034681167
  0
LINE
  8
_1-1_
  6
CONTINUOUS
 62
    3
 10
110.54052404455237
 20
179.85947892472552
 11
111.74055769636826
 21
179.85947892472552
  0
LINE
  8
_1-1_
  6
CONTINUOUS
 62
    3
 10
161.87831156962628
 20
179.85947892472552
 11
171.74050820840372
 21
179.85947892472552
  0
LINE
  8
_1-1_
  6
CONTINUOUS
 62
    3
 10
163.7405065588049
 20
177.45947348104943
 11
160.74050903320312
 21
174.25947034681167
  0
LINE
  8
_1-1_
  6
CONTINUOUS
 62
    3
 10
170.14051282728042
 20
177.45947348104943
 11
170.14051282728042
 21
177.05947463576859
  0
LINE
  8
_1-1_
  6
CONTINUOUS
 62
    3
 10
169.34051513671875
 20
177.45947348104943
 11
169.34051513671875
 21
177.05947463576859
  0
LINE
  8
_1-1_
  6
CONTINUOUS
 62
    3
 10
167.74051975559544
 20
177.45947348104943
 11
167.74051975559544
 21
177.05947463576859
  0
LINE
  8
_1-1_
  6
CONTINUOUS
 62
    3
 10
166.9405220650338
 20
177.45947348104943
 11
166.9405220650338
 21
177.05947463576859
  0
LINE
  8
_1-1_
  6
CONTINUOUS
 62
    3
 10
163.7405065588049
 20
177.45947348104943
 11
166.9405220650338
 21
177.45947348104943
  0
LINE
  8
_1-1_
  6
CONTINUOUS
 62
    3
 10
167.74051975559544
 20
177.45947348104943
 11
169.34051513671875
 21
177.45947348104943
  0
LINE
  8
_1-1_
  6
CONTINUOUS
 62
    3
 10
170.14051282728042
 20
177.45947348104943
 11
171.74050820840372
 21
177.45947348104943
  0
LINE
  8
_1-1_
  6
CONTINUOUS
 62
    3
 10
166.9405220650338
 20
177.05947463576859
 11
167.74051975559544
 21
177.05947463576859
  0
LINE
  8
_1-1_
  6
CONTINUOUS
 62
    3
 10
169.34051513671875
 20
177.05947463576859
 11
170.14051282728042
 21
177.05947463576859
  0
LINE
  8
_1-1_
  6
CONTINUOUS
 62
    3
 10
115.34053493190457
 20
177.25946787241344
 11
159.1405012800887
 21
177.25946787241344
  0
LINE
  8
_1-1_
  6
CONTINUOUS
 62
    3
 10
103.94051216744089
 20
176.8594690271326
 11
104.22459782780828
 21
176.25947694520693
  0
LINE
  8
_1-1_
  6
CONTINUOUS
 62
    3
 10
102.74052800358953
 20
176.8594690271326
 11
103.94051216744089
 21
176.8594690271326
  0
LINE
  8
_1-1_
  6
CONTINUOUS
 62
    3
 10
104.22459782780828
 20
176.25947694520693
 11
110.54052404455237
 21
176.25947694520693
  0
LINE
  8
_1-1_
  6
CONTINUOUS
 62
    3
 10
163.94052453943203
 20
176.8594690271326
 11
163.94052453943203
 21
174.25947034681167
  0
LINE
  8
_1-1_
  6
CONTINUOUS
 62
    3
 10
171.74050820840372
 20
179.85947892472552
 11
171.74050820840372
 21
176.25947694520693
  0
LINE
  8
_1-1_
  6
CONTINUOUS
 62
    3
 10
232.94049237225508
 20
179.85947892472552
 11
232.94049237225508
 21
177.45947348104943
  0
LINE
  8
_1-0_
  6
CONTINUOUS
 62
    3
 10
163.94052453943203
 20
174.25947034681167
 11
221.94050556904563
 21
174.25947034681167
  0
LINE
  8
_1-1_
  6
CONTINUOUS
 62
    3
 10
171.74050820840372
 20
179.85947892472552
 11
172.94054186021961
 21
179.85947892472552
  0
LINE
  8
_1-1_
  6
CONTINUOUS
 62
    3
 10
223.07830810546875
 20
179.85947892472552
 11
232.94049237225508
 21
179.85947892472552
  0
LINE
  8
_1-1_
  6
CONTINUOUS
 62
    3
 10
224.94051546663852
 20
177.45947348104943
 11
221.94050556904563
 21
174.25947034681167
  0
LINE
  8
_1-1_
  6
CONTINUOUS
 62
    3
 10
231.34049699113177
 20
177.45947348104943
 11
231.34049699113177
 21
177.05947463576859
  0
LINE
  8
_1-1_
  6
CONTINUOUS
 62
    3
 10
230.54052404455237
 20
177.45947348104943
 11
230.54052404455237
 21
177.05947463576859
  0
LINE
  8
_1-1_
  6
CONTINUOUS
 62
    3
 10
228.94052866342906
 20
177.45947348104943
 11
228.94052866342906
 21
177.05947463576859
  0
LINE
  8
_1-1_
  6
CONTINUOUS
 62
    3
 10
228.14050622888516
 20
177.45947348104943
 11
228.14050622888516
 21
177.05947463576859
  0
LINE
  8
_1-1_
  6
CONTINUOUS
 62
    3
 10
224.94051546663852
 20
177.45947348104943
 11
228.14050622888516
 21
177.45947348104943
  0
LINE
  8
_1-1_
  6
CONTINUOUS
 62
    3
 10
228.94052866342906
 20
177.45947348104943
 11
230.54052404455237
 21
177.45947348104943
  0
LINE
  8
_1-1_
  6
CONTINUOUS
 62
    3
 10
231.34049699113177
 20
177.45947348104943
 11
232.94049237225508
 21
177.45947348104943
  0
LINE
  8
_1-1_
  6
CONTINUOUS
 62
    3
 10
228.14050622888516
 20
177.05947463576859
 11
228.94052866342906
 21
177.05947463576859
  0
LINE
  8
_1-1_
  6
CONTINUOUS
 62
    3
 10
230.54052404455237
 20
177.05947463576859
 11
231.34049699113177
 21
177.05947463576859
  0
LINE
  8
_1-1_
  6
CONTINUOUS
 62
    3
 10
176.54054383973818
 20
177.25946787241344
 11
220.34051018792232
 21
177.25946787241344
  0
LINE
  8
_1-1_
  6
CONTINUOUS
 62
    3
 10
165.14050870328336
 20
176.8594690271326
 11
165.42459436365078
 21
176.25947694520693
  0
LINE
  8
_1-1_
  6
CONTINUOUS
 62
    3
 10
163.94052453943203
 20
176.8594690271326
 11
165.14050870328336
 21
176.8594690271326
  0
LINE
  8
_1-1_
  6
CONTINUOUS
 62
    3
 10
165.42459436365078
 20
176.25947694520693
 11
171.74050820840372
 21
176.25947694520693
  0
LINE
  8
_1-1_
  6
CONTINUOUS
 62
    3
 10
225.14052107527451
 20
176.8594690271326
 11
225.14052107527451
 21
174.25947034681167
  0
LINE
  8
_1-1_
  6
CONTINUOUS
 62
    3
 10
232.94051711623734
 20
179.85947892472552
 11
232.94051711623734
 21
176.25947694520693
  0
LINE
  8
_1-1_
  6
CONTINUOUS
 62
    3
 10
294.1405012800887
 20
179.85947892472552
 11
294.1405012800887
 21
177.45947348104943
  0
LINE
  8
_1-0_
  6
CONTINUOUS
 62
    3
 10
225.14052107527451
 20
174.25947034681167
 11
283.14048973289698
 21
174.25947034681167
  0
LINE
  8
_1-1_
  6
CONTINUOUS
 62
    3
 10
232.94051711623734
 20
179.85947892472552
 11
234.14052602407097
 21
179.85947892472552
  0
LINE
  8
_1-1_
  6
CONTINUOUS
 62
    3
 10
284.2783170133024
 20
179.85947892472552
 11
294.1405012800887
 21
179.85947892472552
  0
LINE
  8
_1-1_
  6
CONTINUOUS
 62
    3
 10
286.1404996304899
 20
177.45947348104943
 11
283.14048973289698
 21
174.25947034681167
  0
LINE
  8
_1-1_
  6
CONTINUOUS
 62
    3
 10
292.54050589896536
 20
177.45947348104943
 11
292.54050589896536
 21
177.05947463576859
  0
LINE
  8
_1-1_
  6
CONTINUOUS
 62
    3
 10
291.74050820840375
 20
177.45947348104943
 11
291.74050820840375
 21
177.05947463576859
  0
LINE
  8
_1-1_
  6
CONTINUOUS
 62
    3
 10
290.14051282728042
 20
177.45947348104943
 11
290.14051282728042
 21
177.05947463576859
  0
LINE
  8
_1-1_
  6
CONTINUOUS
 62
    3
 10
289.34051513671875
 20
177.45947348104943
 11
289.34051513671875
 21
177.05947463576859
  0
LINE
  8
_1-1_
  6
CONTINUOUS
 62
    3
 10
286.1404996304899
 20
177.45947348104943
 11
289.34051513671875
 21
177.45947348104943
  0
LINE
  8
_1-1_
  6
CONTINUOUS
 62
    3
 10
290.14051282728042
 20
177.45947348104943
 11
291.74050820840375
 21
177.45947348104943
  0
LINE
  8
_1-1_
  6
CONTINUOUS
 62
    3
 10
292.54050589896536
 20
177.45947348104943
 11
294.1405012800887
 21
177.45947348104943
  0
LINE
  8
_1-1_
  6
CONTINUOUS
 62
    3
 10
289.34051513671875
 20
177.05947463576859
 11
290.14051282728042
 21
177.05947463576859
  0
LINE
  8
_1-1_
  6
CONTINUOUS
 62
    3
 10
291.74050820840375
 20
177.05947463576859
 11
292.54050589896536
 21
177.05947463576859
  0
LINE
  8
_1-1_
  6
CONTINUOUS
 62
    3
 10
237.74052800358953
 20
177.25946787241344
 11
281.54049435177365
 21
177.25946787241344
  0
LINE
  8
_1-1_
  6
CONTINUOUS
 62
    3
 10
226.34050523912586
 20
176.8594690271326
 11
226.62459089949326
 21
176.25947694520693
  0
LINE
  8
_1-1_
  6
CONTINUOUS
 62
    3
 10
225.14052107527451
 20
176.8594690271326
 11
226.34050523912586
 21
176.8594690271326
  0
LINE
  8
_1-1_
  6
CONTINUOUS
 62
    3
 10
226.62459089949326
 20
176.25947694520693
 11
232.94051711623734
 21
176.25947694520693
  0
LINE
  8
_1-0_
  6
CONTINUOUS
 62
    3
 10
225.14052107527451
 20
174.25947034681167
 11
283.14048973289698
 21
174.25947034681167
  0
LINE
  8
_1-1_
  6
CONTINUOUS
 62
    7
 10
221.94050556904563
 20
174.25947034681167
 11
225.14052107527451
 21
174.25947034681167
  0
LINE
  8
_1-0_
  6
CONTINUOUS
 62
    3
 10
163.94052453943203
 20
174.25947034681167
 11
221.94050556904563
 21
174.25947034681167
  0
LINE
  8
_1-1_
  6
CONTINUOUS
 62
    7
 10
160.74050903320312
 20
174.25947034681167
 11
163.94052453943203
 21
174.25947034681167
  0
LINE
  8
_1-0_
  6
CONTINUOUS
 62
    3
 10
47.140552417652032
 20
174.25947034681167
 11
99.540512497360652
 21
174.25947034681167
  0
LINE
  8
_1-0_
  6
CONTINUOUS
 62
    3
 10
102.74052800358953
 20
174.25947034681167
 11
160.74050903320312
 21
174.25947034681167
  0
LINE
  8
_1-1_
  6
CONTINUOUS
 62
    7
 10
102.74052800358953
 20
174.25947034681167
 11
99.540512497360652
 21
174.25947034681167
  0
LINE
  8
_0-1_
  6
CONTINUOUS
 62
    7
 10
184.84930090002112
 20
125.27581292229731
 11
203.51351351351352
 21
125.27581292229731
  0
LINE
  8
_0-1_
  6
CONTINUOUS
 62
    7
 10
187.39708977776607
 20
118.27581457189612
 11
203.51351351351352
 21
118.27581457189612
  0
LINE
  8
_0-1_
  6
CONTINUOUS
 62
    7
 10
189.94490339949326
 20
111.27581622149494
 11
203.51351351351352
 21
111.27581622149494
  0
LINE
  8
_0-1_
  6
CONTINUOUS
 62
    7
 10
192.49269227723818
 20
104.27581787109375
 11
203.51351351351352
 21
104.27581787109375
  0
LINE
  8
_0-1_
  6
CONTINUOUS
 62
    7
 10
195.04048115498313
 20
97.275813334697006
 11
203.51351351351352
 21
97.275813334697006
  0
LINE
  8
_1-1_
  6
CONTINUOUS
 62
    3
 10
287.03744424356
 20
179.85947892472552
 11
285.83743533572635
 21
179.85947892472552
  0
LINE
  8
_1-1_
  6
CONTINUOUS
 62
    3
 10
294.14052602407094
 20
179.85947892472552
 11
294.14052602407094
 21
177.45947348104943
  0
LINE
  8
_1-1_
  6
CONTINUOUS
 62
    3
 10
46.084726694467918
 20
174.25947034681167
 11
99.540512497360652
 21
174.25947034681167
  0
LINE
  8
_1-1_
  6
CONTINUOUS
 62
    3
 10
46.084726694467918
 20
176.25947694520693
 11
49.340539880701016
 21
176.25947694520693
  0
LINE
  8
_1-0_
  6
CONTINUOUS
 62
    7
 10
46.084726694467918
 20
169.45945945945948
 11
295.34053493190459
 21
169.45945945945948
  0
LINE
  8
_1-0_
  6
DASHED1
 62
    3
 10
46.084726694467918
 20
170.05946391337628
 11
294.91929337785052
 21
170.05946391337628
  0
LINE
  8
_1-0_
  6
CONTINUOUS
 62
    2
 10
276.46988327438771
 20
170.3423123746305
 11
294.46989317198057
 21
170.3423123746305
  0
LINE
  8
_1-0_
  6
CONTINUOUS
 62
    2
 10
276.46988327438771
 20
173.8715341928843
 11
276.46988327438771
 21
170.3423123746305
  0
LINE
  8
_1-0_
  6
CONTINUOUS
 62
    2
 10
276.46988327438771
 20
173.8715341928843
 11
278.64859091269005
 21
173.8715341928843
  0
LINE
  8
_1-0_
  6
CONTINUOUS
 62
    7
 10
47.140552417652032
 20
171.2594728212099
 11
276.08706912478885
 21
171.2594728212099
  0
LINE
  8
_1-0_
  6
CONTINUOUS
 62
    7
 10
47.140552417652032
 20
170.65946836729307
 11
276.08706912478885
 21
170.65946836729307
  0
LINE
  8
_1-0_
  6
CONTINUOUS
 62
    7
 10
276.08706912478885
 20
170.65946836729307
 11
276.08706912478885
 21
174.25947034681167
  0
LINE
  8
_1-0_
  6
CONTINUOUS
 62
    7
 10
271.28708298141896
 20
170.65946836729307
 11
271.28708298141896
 21
171.2594728212099
  0
LINE
  8
_1-0_
  6
CONTINUOUS
 62
    7
 10
271.28708298141896
 20
171.2594728212099
 11
276.08706912478885
 21
171.2594728212099
  0
LINE
  8
_1-0_
  6
CONTINUOUS
 62
    7
 10
276.08706912478885
 20
171.2594728212099
 11
276.08706912478885
 21
170.65946836729307
  0
LINE
  8
_1-0_
  6
CONTINUOUS
 62
    7
 10
276.08706912478885
 20
170.65946836729307
 11
271.28708298141896
 21
170.65946836729307
  0
LINE
  8
_1-0_
  6
CONTINUOUS
 62
    7
 10
271.28708298141896
 20
171.2594728212099
 11
276.08706912478885
 21
170.65946836729307
  0
LINE
  8
_1-0_
  6
CONTINUOUS
 62
    2
 10
294.46989317198057
 20
170.3423123746305
 11
294.46989317198057
 21
200.3423123746305
  0
LINE
  8
_1-0_
  6
CONTINUOUS
 62
    2
 10
294.46989317198057
 20
200.3423123746305
 11
294.24135775179479
 21
199.2022705078125
  0
LINE
  8
_1-0_
  6
CONTINUOUS
 62
    2
 10
272.92909364442568
 20
182.85946407833615
 11
272.92909364442568
 21
179.56250164959883
  0
LINE
  8
_1-0_
  6
CONTINUOUS
 62
    7
 10
275.52562816722974
 20
182.85946407833615
 11
275.52562816722974
 21
177.25946787241344
  0
LINE
  8
_1-0_
  6
CONTINUOUS
 62
    7
 10
280.52561991923568
 20
182.85946407833615
 11
280.52561991923568
 21
177.25946787241344
  0
LINE
  8
_1-0_
  6
CONTINUOUS
 62
    7
 10
279.9313684411951
 20
177.25946787241344
 11
280.52561991923568
 21
177.85371935045399
  0
LINE
  8
_1-0_
  6
CONTINUOUS
 62
    7
 10
279.08282305743245
 20
177.25946787241344
 11
280.52561991923568
 21
178.70225236222552
  0
LINE
  8
_1-0_
  6
CONTINUOUS
 62
    7
 10
278.23430241765203
 20
177.25946787241344
 11
280.52561991923568
 21
179.55077300200591
  0
LINE
  8
_1-0_
  6
CONTINUOUS
 62
    7
 10
277.38578177787161
 20
177.25946787241344
 11
280.52561991923568
 21
180.39929364178633
  0
LINE
  8
_1-0_
  6
CONTINUOUS
 62
    7
 10
276.53726113809125
 20
177.25946787241344
 11
280.52561991923568
 21
181.24781428156675
  0
LINE
  8
_1-0_
  6
CONTINUOUS
 62
    7
 10
275.68874049831084
 20
177.25946787241344
 11
280.52561991923568
 21
182.09633492134714
  0
LINE
  8
_1-0_
  6
CONTINUOUS
 62
    7
 10
275.52562816722974
 20
177.94487618111276
 11
280.44020369246203
 21
182.85946407833615
  0
LINE
  8
_1-0_
  6
CONTINUOUS
 62
    7
 10
275.52562816722974
 20
178.79339682089318
 11
279.59170779666385
 21
182.85946407833615
  0
LINE
  8
_1-0_
  6
CONTINUOUS
 62
    7
 10
275.52562816722974
 20
179.64192983266472
 11
278.7431624129012
 21
182.85946407833615
  0
LINE
  8
_1-0_
  6
CONTINUOUS
 62
    7
 10
275.52562816722974
 20
180.4904504724451
 11
277.89464177312078
 21
182.85946407833615
  0
LINE
  8
_1-0_
  6
CONTINUOUS
 62
    7
 10
275.52562816722974
 20
181.33897111222552
 11
277.04612113334036
 21
182.85946407833615
  0
LINE
  8
_1-0_
  6
CONTINUOUS
 62
    7
 10
275.52562816722974
 20
182.18751649598818
 11
276.19757574957771
 21
182.85946407833615
  0
LINE
  8
_1-0_
  6
CONTINUOUS
 62
    7
 10
275.52562816722974
 20
177.58829065271328
 11
275.85445094752959
 21
177.25946787241344
  0
LINE
  8
_1-0_
  6
CONTINUOUS
 62
    7
 10
275.52562816722974
 20
178.43681129249367
 11
276.70297158731
 21
177.25946787241344
  0
LINE
  8
_1-0_
  6
CONTINUOUS
 62
    7
 10
275.52562816722974
 20
179.28533193227409
 11
277.55149222709036
 21
177.25946787241344
  0
LINE
  8
_1-0_
  6
CONTINUOUS
 62
    7
 10
275.52562816722974
 20
180.13384020006336
 11
278.39998812288854
 21
177.25946787241344
  0
LINE
  8
_1-0_
  6
CONTINUOUS
 62
    7
 10
275.52562816722974
 20
180.98236083984375
 11
279.24850876266896
 21
177.25946787241344
  0
LINE
  8
_1-0_
  6
CONTINUOUS
 62
    7
 10
275.52562816722974
 20
181.83088147962417
 11
280.09702940244932
 21
177.25946787241344
  0
LINE
  8
_1-0_
  6
CONTINUOUS
 62
    7
 10
275.52562816722974
 20
182.67937737542232
 11
280.52561991923568
 21
177.67939799540753
  0
LINE
  8
_1-0_
  6
CONTINUOUS
 62
    7
 10
276.1940621040963
 20
182.85946407833615
 11
280.52561991923568
 21
178.5279062631968
  0
LINE
  8
_1-0_
  6
CONTINUOUS
 62
    7
 10
277.04258274387672
 20
182.85946407833615
 11
280.52561991923568
 21
179.37642690297722
  0
LINE
  8
_1-0_
  6
CONTINUOUS
 62
    7
 10
277.89110338365708
 20
182.85946407833615
 11
280.52561991923568
 21
180.2249475427576
  0
LINE
  8
_1-0_
  6
CONTINUOUS
 62
    7
 10
278.7396240234375
 20
182.85946407833615
 11
280.52561991923568
 21
181.07346818253802
  0
LINE
  8
_1-0_
  6
CONTINUOUS
 62
    7
 10
279.58814466321792
 20
182.85946407833615
 11
280.52561991923568
 21
181.92198882231841
  0
LINE
  8
_1-0_
  6
CONTINUOUS
 62
    7
 10
280.43666530299834
 20
182.85946407833615
 11
280.52561991923568
 21
182.77050946209883
  0
LINE
  8
_1-3_
  6
CONTINUOUS
 62
    7
 10
255.3405266839105
 20
133.7837837837838
 11
295.34053493190459
 21
133.7837837837838
  0
LINE
  8
_1-3_
  6
CONTINUOUS
 62
    7
 10
255.3405266839105
 20
145.94594594594597
 11
255.3405266839105
 21
133.7837837837838
  0
LINE
  8
_1-3_
  6
CONTINUOUS
 62
    7
 10
295.34053493190459
 20
145.94594594594597
 11
295.34053493190459
 21
133.7837837837838
  0
LINE
  8
_1-3_
  6
CONTINUOUS
 62
    7
 10
255.3405266839105
 20
120
 11
258.27825597814615
 21
121.69610100823481
  0
LINE
  8
_1-3_
  6
CONTINUOUS
 62
    7
 10
255.3405266839105
 20
120
 11
258.27825597814615
 21
118.30389899176521
  0
LINE
  8
_1-3_
  6
CONTINUOUS
 62
    7
 10
255.3405266839105
 20
133.7837837837838
 11
255.3405266839105
 21
120
  0
LINE
  8
_1-3_
  6
CONTINUOUS
 62
    7
 10
307.83782958984375
 20
120
 11
255.3405266839105
 21
120
  0
LINE
  8
_1-3_
  6
CONTINUOUS
 62
    7
 10
317.83783783783787
 20
134.59459459459461
 11
325.13513513513516
 21
138.64864864864865
  0
LINE
  8
_1-3_
  6
CONTINUOUS
 62
    7
 10
317.83783783783787
 20
134.59459459459461
 11
333.24324324324328
 21
134.59459459459461
  0
LINE
  8
_1-3_
  6
CONTINUOUS
 62
    7
 10
285.83743533572635
 20
182.85946407833615
 11
268.31025819520693
 21
231.01498990445526
  0
LINE
  8
_1-3_
  6
CONTINUOUS
 62
    7
 10
277.92581919077281
 20
180.16324842298354
 11
264.35953501108531
 21
217.43633373363599
  0
LINE
  8
_1-3_
  6
CONTINUOUS
 62
    7
 10
279.26780906883448
 20
170.3423123746305
 11
264.91389918971709
 21
209.77935791015625
  0
LINE
  8
_1-3_
  6
CONTINUOUS
 62
    7
 10
268.31025819520693
 20
231.01498990445526
 11
264.31026974239865
 21
231.01498990445526
  0
LINE
  8
_1-3_
  6
CONTINUOUS
 62
    7
 10
264.35953501108531
 20
217.43633373363599
 11
260.35954655827703
 21
217.43633373363599
  0
LINE
  8
_1-3_
  6
CONTINUOUS
 62
    7
 10
264.91389918971709
 20
209.77935791015625
 11
260.9139107369088
 21
209.77935791015625
  0
LINE
  8
_1-0_
  6
CONTINUOUS
 62
    2
 10
272.92909364442568
 20
182.85946407833615
 11
291.3405464790963
 21
182.85946407833615
  0
LINE
  8
_1-0_
  6
CONTINUOUS
 62
    7
 10
46.084726694467918
 20
139.45945945945948
 11
295.34053493190459
 21
139.45945945945948
  0
LINE
  8
_1-2_
  6
CONTINUOUS
 62
    7
 10
165.96108101509714
 20
177.17077306798987
 11
195.04048115498313
 21
97.275813334697006
  0
LINE
  8
_1-0_
  6
CONTINUOUS
 62
    7
 10
46.084726694467918
 20
159.45946358345651
 11
295.34053493190459
 21
159.45946358345651
  0
LINE
  8
_1-0_
  6
CONTINUOUS
 62
    7
 10
91.351355475348399
 20
159.45946358345651
 11
71.351351351351354
 21
139.45945945945948
  0
LINE
  8
_1-0_
  6
CONTINUOUS
 62
    7
 10
97.008213352512669
 20
159.45946358345651
 11
77.008215414511199
 21
139.45945945945948
  0
LINE
  8
_1-0_
  6
CONTINUOUS
 62
    7
 10
94.179784413930534
 20
159.45946358345651
 11
74.179786475929063
 21
139.45945945945948
  0
LINE
  8
_1-0_
  6
CONTINUOUS
 62
    7
 10
226.75677325274495
 20
159.45946358345651
 11
206.75675675675677
 21
139.45945945945948
  0
LINE
  8
_1-0_
  6
CONTINUOUS
 62
    7
 10
229.58520837732266
 20
159.45946358345651
 11
209.58519188133448
 21
139.45945945945948
  0
LINE
  8
_1-0_
  6
CONTINUOUS
 62
    7
 10
232.41364350190034
 20
159.45946358345651
 11
212.41362700591216
 21
139.45945945945948
  0
LINE
  8
ADD_LINE
  6
DOT
 62
    7
 10
313.7837837837838
 20
266.95258063239021
 11
313.7837837837838
 21
158.91891891891893
  0
LINE
  8
_1-0_
  6
CONTINUOUS
 62
    7
 10
291.3405464790963
 20
239.62465853304477
 11
313.7837837837838
 21
262.06789583773229
  0
LINE
  8
_1-0_
  6
CONTINUOUS
 62
    7
 10
291.3405464790963
 20
242.45309365762247
 11
313.7837837837838
 21
264.89633096231
  0
LINE
  8
_1-0_
  6
CONTINUOUS
 62
    7
 10
291.3405464790963
 20
245.28152878220018
 11
313.7837837837838
 21
267.72476608688771
  0
LINE
  8
ADD_LINE
  6
DOT
 62
    4
 10
282.32945622624578
 20
230.05945154138516
 11
350.8153059675887
 21
230.05945154138516
  0
LINE
  8
_1-0_
  6
CONTINUOUS
 62
    2
 10
291.3405464790963
 20
182.85946407833615
 11
291.3405464790963
 21
226.05948783255914
  0
LINE
  8
_1-0_
  6
CONTINUOUS
 62
    2
 10
291.3405464790963
 20
226.05948783255914
 11
294.62360278980151
 21
226.05948783255914
  0
LINE
  8
_1-0_
  6
CONTINUOUS
 62
    2
 10
291.3405464790963
 20
230.05945154138516
 11
294.62360278980151
 21
230.05945154138516
  0
LINE
  8
_1-0_
  6
CONTINUOUS
 62
    2
 10
294.62360278980151
 20
230.05945154138516
 11
294.62360278980151
 21
226.05948783255914
  0
LINE
  8
_1-0_
  6
CONTINUOUS
 62
    7
 10
295.34053493190459
 20
230.77009871199326
 11
291.3405464790963
 21
230.77009871199326
  0
LINE
  8
_1-0_
  6
CONTINUOUS
 62
    7
 10
295.34053493190459
 20
94.86486486486487
 11
295.34053493190459
 21
230.77009871199326
  0
LINE
  8
_1-0_
  6
DASHED1
 62
    3
 10
294.91929337785052
 20
170.05946391337628
 11
294.91929337785052
 21
230.05945154138516
  0
LINE
  8
_1-0_
  6
CONTINUOUS
 62
    7
 10
293.95492141311234
 20
226.05948783255914
 11
294.62360278980151
 21
226.72816920924834
  0
LINE
  8
_1-0_
  6
CONTINUOUS
 62
    7
 10
292.54070385082349
 20
226.05948783255914
 11
294.62360278980151
 21
228.14238677153716
  0
LINE
  8
_1-0_
  6
CONTINUOUS
 62
    7
 10
291.93286792652026
 20
226.8658447265625
 11
294.62360278980151
 21
229.55655484586151
  0
LINE
  8
_1-0_
  6
CONTINUOUS
 62
    7
 10
292.30583397117823
 20
228.6530283335093
 11
293.71228192303636
 21
230.05945154138516
  0
LINE
  8
_1-0_
  6
CONTINUOUS
 62
    7
 10
292.02105547930745
 20
229.78246740392737
 11
292.2980643607475
 21
230.05945154138516
  0
LINE
  8
_1-0_
  6
CONTINUOUS
 62
    7
 10
288.81769953547297
 20
228.79260913745779
 11
293.10028900971287
 21
228.79260913745779
  0
LINE
  8
_1-0_
  6
CONTINUOUS
 62
    7
 10
291.3405464790963
 20
230.77009871199326
 11
291.3405464790963
 21
266.95258063239021
  0
LINE
  8
_1-0_
  6
DASHED1
 62
    7
 10
295.34053493190459
 20
230.77009871199326
 11
295.34053493190459
 21
266.95258063239021
  0
LINE
  8
_1-3_
  6
CONTINUOUS
 62
    7
 10
337.1043684675887
 20
170.05946391337628
 11
337.1043684675887
 21
200.3423123746305
  0
LINE
  8
_1-3_
  6
CONTINUOUS
 62
    7
 10
306.51466988228464
 20
170.05946391337628
 11
337.1043684675887
 21
170.05946391337628
  0
LINE
  8
_1-3_
  6
CONTINUOUS
 62
    7
 10
306.51466988228464
 20
200.3423123746305
 11
337.1043684675887
 21
200.3423123746305
  0
LINE
  8
_1-3_
  6
CONTINUOUS
 62
    7
 10
306.51466988228464
 20
170.05946391337628
 11
337.1043684675887
 21
170.05946391337628
  0
LINE
  8
_1-0_
  6
CONTINUOUS
 62
    7
 10
350.11646167652032
 20
170.05946391337628
 11
306.51466988228464
 21
170.05946391337628
  0
LINE
  8
_1-0_
  6
CONTINUOUS
 62
    7
 10
350.11646167652032
 20
230.05945154138516
 11
306.51466988228464
 21
230.05945154138516
  0
LINE
  8
_1-0_
  6
CONTINUOUS
 62
    7
 10
350.11646167652032
 20
170.05946391337628
 11
350.11646167652032
 21
230.05945154138516
  0
LINE
  8
_1-3_
  6
CONTINUOUS
 62
    7
 10
317.83783783783787
 20
129.99999587600297
 11
317.83783783783787
 21
230.05945154138516
  0
LINE
  8
_1-0_
  6
CONTINUOUS
 62
    7
 10
317.83783783783787
 20
230.05945154138516
 11
316.15346547719594
 21
227.14203705658784
  0
LINE
  8
_1-0_
  6
CONTINUOUS
 62
    7
 10
317.83783783783787
 20
230.05945154138516
 11
319.52221019847974
 21
227.14203705658784
  0
LINE
  8
_1-0_
  6
CONTINUOUS
 62
    7
 10
323.03266370618667
 20
230.05945154138516
 11
313.8554671004012
 21
230.05945154138516
  0
LINE
  8
_1-0_
  6
CONTINUOUS
 62
    7
 10
283.07140453441724
 20
244.58043278874578
 11
280.97180340741136
 21
244.58043278874578
  0
LINE
  8
_1-0_
  6
CONTINUOUS
 62
    7
 10
288.81769953547297
 20
228.79260913745779
 11
283.07140453441724
 21
244.58043278874578
  0
ARC
  8
_1-1_
  6
CONTINUOUS
 62
    3
 10
54.386679159628386
 20
181.39254183382602
 40
4.1404008865356445
 50
201.73239135742187
 51
266.59201049804687
  0
ARC
  8
_1-1_
  6
CONTINUOUS
 62
    3
 10
97.935889991554063
 20
180.00581483583193
 40
2.7463450302948824
 50
270.09652709960937
 51
356.94560241699224
  0
ARC
  8
_1-1_
  6
CONTINUOUS
 62
    3
 10
115.58666332347974
 20
181.39254183382602
 40
4.1404008865356445
 50
201.73239135742187
 51
266.59201049804687
  0
ARC
  8
_1-1_
  6
CONTINUOUS
 62
    3
 10
159.13587415540542
 20
180.00581483583193
 40
2.7463450302948824
 50
270.09652709960937
 51
356.94560241699224
  0
ARC
  8
_1-1_
  6
CONTINUOUS
 62
    3
 10
176.78664748733109
 20
181.39254183382602
 40
4.1404008865356445
 50
201.73239135742187
 51
266.59201049804687
  0
ARC
  8
_1-1_
  6
CONTINUOUS
 62
    3
 10
220.33585831925677
 20
180.00581483583193
 40
2.7463450302948824
 50
270.09652709960937
 51
356.94560241699224
  0
ARC
  8
_1-1_
  6
CONTINUOUS
 62
    3
 10
237.98665639516472
 20
181.39254183382602
 40
4.1404008865356445
 50
201.73239135742187
 51
266.59201049804687
  0
ARC
  8
_1-1_
  6
CONTINUOUS
 62
    3
 10
281.53586722709036
 20
180.00581483583193
 40
2.7463450302948824
 50
270.09652709960937
 51
356.94560241699224
  0
ARC
  8
_1-3_
  6
CONTINUOUS
 62
    7
 10
307.83782958984375
 20
129.99999587600297
 40
9.9999997422501856
 50
270
 51
0
  0
CIRCLE
  8
_1-0_
  6
CONTINUOUS
 62
    7
 10
52.528956645243881
 20
165.37801381703972
 40
0.1518352611644848
  0
CIRCLE
  8
_1-0_
  6
CONTINUOUS
 62
    7
 10
54.654600813582135
 20
166.59267116237331
 40
0.1518352611644848
  0
CIRCLE
  8
_1-0_
  6
CONTINUOUS
 62
    7
 10
57.083903132258229
 20
165.83351341453761
 40
0.1518352611644848
  0
CIRCLE
  8
_1-0_
  6
CONTINUOUS
 62
    7
 10
64.827297313793281
 20
164.92252659153294
 40
0.1518352611644848
  0
CIRCLE
  8
_1-0_
  6
CONTINUOUS
 62
    7
 10
63.460817079286329
 20
165.68168433936867
 40
0.1518352611644848
  0
CIRCLE
  8
_1-0_
  6
CONTINUOUS
 62
    7
 10
60.272357012774506
 20
166.59267116237331
 40
0.1518352611644848
  0
CIRCLE
  8
_1-0_
  6
CONTINUOUS
 62
    7
 10
59.968692676441094
 20
165.07435566670188
 40
0.1518352611644848
  0
CIRCLE
  8
_1-0_
  6
CONTINUOUS
 62
    7
 10
56.476574459591433
 20
164.77069751636404
 40
0.1518352611644848
  0
CIRCLE
  8
_1-0_
  6
CONTINUOUS
 62
    7
 10
53.591778729413022
 20
165.07435566670188
 40
0.1518352611644848
  0
CIRCLE
  8
_1-0_
  6
CONTINUOUS
 62
    7
 10
51.769798897408151
 20
166.89632931271115
 40
0.1518352611644848
  0
CIRCLE
  8
_1-0_
  6
CONTINUOUS
 62
    7
 10
53.136285317910676
 20
167.35182891020904
 40
0.1518352611644848
  0
CIRCLE
  8
_1-0_
  6
CONTINUOUS
 62
    7
 10
58.754047703098593
 20
167.65548706054687
 40
0.1518352611644848
  0
CIRCLE
  8
_1-0_
  6
CONTINUOUS
 62
    7
 10
62.549830256281666
 20
167.35182891020904
 40
0.1518352611644848
  0
CIRCLE
  8
_1-0_
  6
CONTINUOUS
 62
    7
 10
66.193783734295835
 20
167.19999983504013
 40
0.1518352611644848
  0
CIRCLE
  8
_1-0_
  6
CONTINUOUS
 62
    7
 10
75.151835261164479
 20
166.74450023754224
 40
0.1518352611644848
  0
CIRCLE
  8
_1-0_
  6
CONTINUOUS
 62
    7
 10
77.277467057511615
 20
166.4408420872044
 40
0.1518352611644848
  0
CIRCLE
  8
_1-0_
  6
CONTINUOUS
 62
    7
 10
72.115204269821589
 20
165.83351341453761
 40
0.1518352611644848
  0
CIRCLE
  8
_1-0_
  6
CONTINUOUS
 62
    7
 10
71.204217446816926
 20
166.28901301203547
 40
0.1518352611644848
  0
CIRCLE
  8
_1-0_
  6
CONTINUOUS
 62
    7
 10
68.167586455474037
 20
165.37801381703972
 40
0.1518352611644848
  0
CIRCLE
  8
_1-0_
  6
CONTINUOUS
 62
    7
 10
69.989566287478908
 20
166.89632931271115
 40
0.1518352611644848
  0
CIRCLE
  8
_1-0_
  6
CONTINUOUS
 62
    7
 10
71.507875597154793
 20
166.74450023754224
 40
0.1518352611644848
  0
CIRCLE
  8
_1-0_
  6
CONTINUOUS
 62
    7
 10
73.785348840661953
 20
165.07435566670188
 40
0.1518352611644848
  0
CIRCLE
  8
_1-0_
  6
CONTINUOUS
 62
    7
 10
76.973808907173776
 20
165.22618474187078
 40
0.1518352611644848
  0
CIRCLE
  8
_1-0_
  6
CONTINUOUS
 62
    7
 10
77.429302318676093
 20
165.37801381703972
 40
0.1518352611644848
  0
CIRCLE
  8
_1-0_
  6
CONTINUOUS
 62
    7
 10
75.455493411502346
 20
167.19999983504013
 40
0.1518352611644848
  0
CIRCLE
  8
_1-0_
  6
CONTINUOUS
 62
    7
 10
75.303664336333412
 20
167.95915758287586
 40
0.1518352611644848
  0
CIRCLE
  8
_1-0_
  6
CONTINUOUS
 62
    7
 10
79.099446889516457
 20
167.80732850770693
 40
0.1518352611644848
  0
CIRCLE
  8
_1-0_
  6
CONTINUOUS
 62
    7
 10
81.376913947028072
 20
167.19999983504013
 40
0.1518352611644848
  0
CIRCLE
  8
_1-0_
  6
CONTINUOUS
 62
    7
 10
79.706769376187708
 20
165.37801381703972
 40
0.1518352611644848
  0
CIRCLE
  8
_1-0_
  6
CONTINUOUS
 62
    7
 10
86.351351351351354
 20
165.8522940970756
 40
0.1518352611644848
  0
CIRCLE
  8
_1-0_
  6
CONTINUOUS
 62
    7
 10
95.630282840213269
 20
165.8522940970756
 40
0.1518352611644848
  0
CIRCLE
  8
_1-0_
  6
CONTINUOUS
 62
    7
 10
94.470414857606642
 20
165.07905702333193
 40
0.1518352611644848
  0
CIRCLE
  8
_1-0_
  6
CONTINUOUS
 62
    7
 10
87.511219333957982
 20
166.238918819943
 40
0.1518352611644848
  0
CIRCLE
  8
_1-0_
  6
CONTINUOUS
 62
    7
 10
85.191483368744727
 20
167.01215589368667
 40
0.1518352611644848
  0
CIRCLE
  8
_1-0_
  6
CONTINUOUS
 62
    7
 10
90.604192372914909
 20
167.39878061655406
 40
0.1518352611644848
  0
CIRCLE
  8
_1-0_
  6
CONTINUOUS
 62
    7
 10
89.830949113175677
 20
167.39878061655406
 40
0.1518352611644848
  0
CIRCLE
  8
_1-0_
  6
CONTINUOUS
 62
    7
 10
83.258372126398868
 20
165.46568174619932
 40
0.1518352611644848
  0
CIRCLE
  8
_1-0_
  6
CONTINUOUS
 62
    7
 10
90.604192372914909
 20
165.46568174619932
 40
0.1518352611644848
  0
CIRCLE
  8
_1-0_
  6
CONTINUOUS
 62
    7
 10
99.62328730402767
 20
164.92252659153294
 40
0.1518352611644848
  0
CIRCLE
  8
_1-0_
  6
CONTINUOUS
 62
    7
 10
98.256807069520704
 20
165.68168433936867
 40
0.1518352611644848
  0
CIRCLE
  8
_1-0_
  6
CONTINUOUS
 62
    7
 10
95.068347003008867
 20
166.59267116237331
 40
0.1518352611644848
  0
CIRCLE
  8
_1-0_
  6
CONTINUOUS
 62
    7
 10
94.764682666675469
 20
165.07435566670188
 40
0.1518352611644848
  0
CIRCLE
  8
_1-0_
  6
CONTINUOUS
 62
    7
 10
93.550037693332982
 20
167.65548706054687
 40
0.1518352611644848
  0
CIRCLE
  8
_1-0_
  6
CONTINUOUS
 62
    7
 10
97.345820246516055
 20
167.35182891020904
 40
0.1518352611644848
  0
CIRCLE
  8
_1-0_
  6
CONTINUOUS
 62
    7
 10
100.9897737245302
 20
167.19999983504013
 40
0.1518352611644848
  0
CIRCLE
  8
_1-0_
  6
CONTINUOUS
 62
    7
 10
109.94783143739443
 20
166.74450023754224
 40
0.1518352611644848
  0
CIRCLE
  8
_1-0_
  6
CONTINUOUS
 62
    7
 10
112.07346323374156
 20
166.4408420872044
 40
0.1518352611644848
  0
CIRCLE
  8
_1-0_
  6
CONTINUOUS
 62
    7
 10
106.91120044605152
 20
165.83351341453761
 40
0.1518352611644848
  0
CIRCLE
  8
_1-0_
  6
CONTINUOUS
 62
    7
 10
106.00020125105574
 20
166.28901301203547
 40
0.1518352611644848
  0
CIRCLE
  8
_1-0_
  6
CONTINUOUS
 62
    7
 10
102.96357644570841
 20
165.37801381703972
 40
0.1518352611644848
  0
CIRCLE
  8
_1-0_
  6
CONTINUOUS
 62
    7
 10
104.78555627771327
 20
166.89632931271115
 40
0.1518352611644848
  0
CIRCLE
  8
_1-0_
  6
CONTINUOUS
 62
    7
 10
106.30385940139358
 20
166.74450023754224
 40
0.1518352611644848
  0
CIRCLE
  8
_1-0_
  6
CONTINUOUS
 62
    7
 10
108.5813450168919
 20
165.07435566670188
 40
0.1518352611644848
  0
CIRCLE
  8
_1-0_
  6
CONTINUOUS
 62
    7
 10
111.76980508340372
 20
165.22618474187078
 40
0.1518352611644848
  0
CIRCLE
  8
_1-0_
  6
CONTINUOUS
 62
    7
 10
112.22529230891048
 20
165.37801381703972
 40
0.1518352611644848
  0
CIRCLE
  8
_1-0_
  6
CONTINUOUS
 62
    7
 10
110.25148958773227
 20
167.19999983504013
 40
0.1518352611644848
  0
CIRCLE
  8
_1-0_
  6
CONTINUOUS
 62
    7
 10
110.09966051256335
 20
167.95915758287586
 40
0.1518352611644848
  0
CIRCLE
  8
_1-0_
  6
CONTINUOUS
 62
    7
 10
113.89543687975085
 20
167.80732850770693
 40
0.1518352611644848
  0
CIRCLE
  8
_1-0_
  6
CONTINUOUS
 62
    7
 10
116.1728977512669
 20
167.19999983504013
 40
0.1518352611644848
  0
CIRCLE
  8
_1-0_
  6
CONTINUOUS
 62
    7
 10
114.50275318042652
 20
165.37801381703972
 40
0.1518352611644848
  0
CIRCLE
  8
_1-0_
  6
CONTINUOUS
 62
    7
 10
119.98747954497468
 20
167.01215589368667
 40
0.1518352611644848
  0
CIRCLE
  8
_1-0_
  6
CONTINUOUS
 62
    7
 10
118.05435593063767
 20
165.46568174619932
 40
0.1518352611644848
  0
CIRCLE
  8
_1-0_
  6
CONTINUOUS
 62
    7
 10
124.75371489653718
 20
164.92252659153294
 40
0.1518352611644848
  0
CIRCLE
  8
_1-0_
  6
CONTINUOUS
 62
    7
 10
123.38724084802577
 20
165.68168433936867
 40
0.1518352611644848
  0
CIRCLE
  8
_1-0_
  6
CONTINUOUS
 62
    7
 10
120.19878078151395
 20
166.59267116237331
 40
0.1518352611644848
  0
CIRCLE
  8
_1-0_
  6
CONTINUOUS
 62
    7
 10
119.89511025918497
 20
165.07435566670188
 40
0.1518352611644848
  0
CIRCLE
  8
_1-0_
  6
CONTINUOUS
 62
    7
 10
118.68047765783362
 20
167.65548706054687
 40
0.1518352611644848
  0
CIRCLE
  8
_1-0_
  6
CONTINUOUS
 62
    7
 10
122.47625402502112
 20
167.35182891020904
 40
0.1518352611644848
  0
CIRCLE
  8
_1-0_
  6
CONTINUOUS
 62
    7
 10
126.1202013170397
 20
167.19999983504013
 40
0.1518352611644848
  0
CIRCLE
  8
_1-0_
  6
CONTINUOUS
 62
    7
 10
135.07826521589951
 20
166.74450023754224
 40
0.1518352611644848
  0
CIRCLE
  8
_1-0_
  6
CONTINUOUS
 62
    7
 10
137.20389701224664
 20
166.4408420872044
 40
0.1518352611644848
  0
CIRCLE
  8
_1-0_
  6
CONTINUOUS
 62
    7
 10
132.04163422455659
 20
165.83351341453761
 40
0.1518352611644848
  0
CIRCLE
  8
_1-0_
  6
CONTINUOUS
 62
    7
 10
131.13063502956081
 20
166.28901301203547
 40
0.1518352611644848
  0
CIRCLE
  8
_1-0_
  6
CONTINUOUS
 62
    7
 10
128.09400403821792
 20
165.37801381703972
 40
0.1518352611644848
  0
CIRCLE
  8
_1-0_
  6
CONTINUOUS
 62
    7
 10
129.91599005621833
 20
166.89632931271115
 40
0.1518352611644848
  0
CIRCLE
  8
_1-0_
  6
CONTINUOUS
 62
    7
 10
131.43429317989865
 20
166.74450023754224
 40
0.1518352611644848
  0
CIRCLE
  8
_1-0_
  6
CONTINUOUS
 62
    7
 10
133.71177879539698
 20
165.07435566670188
 40
0.1518352611644848
  0
CIRCLE
  8
_1-0_
  6
CONTINUOUS
 62
    7
 10
136.9002388619088
 20
165.22618474187078
 40
0.1518352611644848
  0
CIRCLE
  8
_1-0_
  6
CONTINUOUS
 62
    7
 10
137.35572608741555
 20
165.37801381703972
 40
0.1518352611644848
  0
CIRCLE
  8
_1-0_
  6
CONTINUOUS
 62
    7
 10
135.38192336623734
 20
167.19999983504013
 40
0.1518352611644848
  0
CIRCLE
  8
_1-0_
  6
CONTINUOUS
 62
    7
 10
135.23009429106841
 20
167.95915758287586
 40
0.1518352611644848
  0
CIRCLE
  8
_1-0_
  6
CONTINUOUS
 62
    7
 10
139.02587065825591
 20
167.80732850770693
 40
0.1518352611644848
  0
CIRCLE
  8
_1-0_
  6
CONTINUOUS
 62
    7
 10
141.30333152977198
 20
167.19999983504013
 40
0.1518352611644848
  0
CIRCLE
  8
_1-0_
  6
CONTINUOUS
 62
    7
 10
139.63318695893159
 20
165.37801381703972
 40
0.1518352611644848
  0
CIRCLE
  8
_1-0_
  6
CONTINUOUS
 62
    7
 10
145.11791332347974
 20
167.01215589368667
 40
0.1518352611644848
  0
CIRCLE
  8
_1-0_
  6
CONTINUOUS
 62
    7
 10
143.18478970914273
 20
165.46568174619932
 40
0.1518352611644848
  0
CIRCLE
  8
_1-0_
  6
CONTINUOUS
 62
    7
 10
150.27077339790964
 20
164.92252659153294
 40
0.1518352611644848
  0
CIRCLE
  8
_1-0_
  6
CONTINUOUS
 62
    7
 10
148.90429934939823
 20
165.68168433936867
 40
0.1518352611644848
  0
CIRCLE
  8
_1-0_
  6
CONTINUOUS
 62
    7
 10
145.71583928288641
 20
166.59267116237331
 40
0.1518352611644848
  0
CIRCLE
  8
_1-0_
  6
CONTINUOUS
 62
    7
 10
145.41216876055745
 20
165.07435566670188
 40
0.1518352611644848
  0
CIRCLE
  8
_1-0_
  6
CONTINUOUS
 62
    7
 10
144.19753615920609
 20
167.65548706054687
 40
0.1518352611644848
  0
CIRCLE
  8
_1-0_
  6
CONTINUOUS
 62
    7
 10
147.99331252639359
 20
167.35182891020904
 40
0.1518352611644848
  0
CIRCLE
  8
_1-0_
  6
CONTINUOUS
 62
    7
 10
151.63725981841216
 20
167.19999983504013
 40
0.1518352611644848
  0
CIRCLE
  8
_1-0_
  6
CONTINUOUS
 62
    7
 10
160.59532371727198
 20
166.74450023754224
 40
0.1518352611644848
  0
CIRCLE
  8
_1-0_
  6
CONTINUOUS
 62
    7
 10
162.72095551361909
 20
166.4408420872044
 40
0.1518352611644848
  0
CIRCLE
  8
_1-0_
  6
CONTINUOUS
 62
    7
 10
157.55869272592906
 20
165.83351341453761
 40
0.1518352611644848
  0
CIRCLE
  8
_1-0_
  6
CONTINUOUS
 62
    7
 10
156.64769353093328
 20
166.28901301203547
 40
0.1518352611644848
  0
CIRCLE
  8
_1-0_
  6
CONTINUOUS
 62
    7
 10
153.61106253959039
 20
165.37801381703972
 40
0.1518352611644848
  0
CIRCLE
  8
_1-0_
  6
CONTINUOUS
 62
    7
 10
155.43304855759081
 20
166.89632931271115
 40
0.1518352611644848
  0
CIRCLE
  8
_1-0_
  6
CONTINUOUS
 62
    7
 10
156.95135168127112
 20
166.74450023754224
 40
0.1518352611644848
  0
CIRCLE
  8
_1-0_
  6
CONTINUOUS
 62
    7
 10
159.22883729676943
 20
165.07435566670188
 40
0.1518352611644848
  0
CIRCLE
  8
_1-0_
  6
CONTINUOUS
 62
    7
 10
162.41729736328125
 20
165.22618474187078
 40
0.1518352611644848
  0
CIRCLE
  8
_1-0_
  6
CONTINUOUS
 62
    7
 10
162.87278458878802
 20
165.37801381703972
 40
0.1518352611644848
  0
CIRCLE
  8
_1-0_
  6
CONTINUOUS
 62
    7
 10
160.89898186760982
 20
167.19999983504013
 40
0.1518352611644848
  0
CIRCLE
  8
_1-0_
  6
CONTINUOUS
 62
    7
 10
160.74715279244089
 20
167.95915758287586
 40
0.1518352611644848
  0
CIRCLE
  8
_1-0_
  6
CONTINUOUS
 62
    7
 10
164.54292915962839
 20
167.80732850770693
 40
0.1518352611644848
  0
CIRCLE
  8
_1-0_
  6
CONTINUOUS
 62
    7
 10
166.82039003114443
 20
167.19999983504013
 40
0.1518352611644848
  0
CIRCLE
  8
_1-0_
  6
CONTINUOUS
 62
    7
 10
165.15024546030406
 20
165.37801381703972
 40
0.1518352611644848
  0
CIRCLE
  8
_1-0_
  6
CONTINUOUS
 62
    7
 10
170.63497182485222
 20
167.01215589368667
 40
0.1518352611644848
  0
CIRCLE
  8
_1-0_
  6
CONTINUOUS
 62
    7
 10
168.70184821051521
 20
165.46568174619932
 40
0.1518352611644848
  0
CIRCLE
  8
_1-0_
  6
CONTINUOUS
 62
    7
 10
177.72095551361909
 20
164.92252659153294
 40
0.1518352611644848
  0
CIRCLE
  8
_1-0_
  6
CONTINUOUS
 62
    7
 10
176.35446909311656
 20
165.68168433936867
 40
0.1518352611644848
  0
CIRCLE
  8
_1-0_
  6
CONTINUOUS
 62
    7
 10
173.16600902660474
 20
166.59267116237331
 40
0.1518352611644848
  0
CIRCLE
  8
_1-0_
  6
CONTINUOUS
 62
    7
 10
172.8623508762669
 20
165.07435566670188
 40
0.1518352611644848
  0
CIRCLE
  8
_1-0_
  6
CONTINUOUS
 62
    7
 10
171.64769353093328
 20
167.65548706054687
 40
0.1518352611644848
  0
CIRCLE
  8
_1-0_
  6
CONTINUOUS
 62
    7
 10
175.44348227011193
 20
167.35182891020904
 40
0.1518352611644848
  0
CIRCLE
  8
_1-0_
  6
CONTINUOUS
 62
    7
 10
179.08744193412164
 20
167.19999983504013
 40
0.1518352611644848
  0
CIRCLE
  8
_1-0_
  6
CONTINUOUS
 62
    7
 10
188.04548108899917
 20
166.74450023754224
 40
0.1518352611644848
  0
CIRCLE
  8
_1-0_
  6
CONTINUOUS
 62
    7
 10
190.1711128853463
 20
166.4408420872044
 40
0.1518352611644848
  0
CIRCLE
  8
_1-0_
  6
CONTINUOUS
 62
    7
 10
185.00885009765625
 20
165.83351341453761
 40
0.1518352611644848
  0
CIRCLE
  8
_1-0_
  6
CONTINUOUS
 62
    7
 10
184.09787564664273
 20
166.28901301203547
 40
0.1518352611644848
  0
CIRCLE
  8
_1-0_
  6
CONTINUOUS
 62
    7
 10
181.06124465529984
 20
165.37801381703972
 40
0.1518352611644848
  0
CIRCLE
  8
_1-0_
  6
CONTINUOUS
 62
    7
 10
182.88321830130914
 20
166.89632931271115
 40
0.1518352611644848
  0
CIRCLE
  8
_1-0_
  6
CONTINUOUS
 62
    7
 10
184.40153379698057
 20
166.74450023754224
 40
0.1518352611644848
  0
CIRCLE
  8
_1-0_
  6
CONTINUOUS
 62
    7
 10
186.67899466849664
 20
165.07435566670188
 40
0.1518352611644848
  0
CIRCLE
  8
_1-0_
  6
CONTINUOUS
 62
    7
 10
189.86745473500847
 20
165.22618474187078
 40
0.1518352611644848
  0
CIRCLE
  8
_1-0_
  6
CONTINUOUS
 62
    7
 10
190.32295433250636
 20
165.37801381703972
 40
0.1518352611644848
  0
CIRCLE
  8
_1-0_
  6
CONTINUOUS
 62
    7
 10
188.34913923933701
 20
167.19999983504013
 40
0.1518352611644848
  0
CIRCLE
  8
_1-0_
  6
CONTINUOUS
 62
    7
 10
188.19731016416807
 20
167.95915758287586
 40
0.1518352611644848
  0
CIRCLE
  8
_1-0_
  6
CONTINUOUS
 62
    7
 10
191.99309890334672
 20
167.80732850770693
 40
0.1518352611644848
  0
CIRCLE
  8
_1-0_
  6
CONTINUOUS
 62
    7
 10
194.27057214685391
 20
167.19999983504013
 40
0.1518352611644848
  0
CIRCLE
  8
_1-0_
  6
CONTINUOUS
 62
    7
 10
192.60042757601352
 20
165.37801381703972
 40
0.1518352611644848
  0
CIRCLE
  8
_1-0_
  6
CONTINUOUS
 62
    7
 10
198.0851291965794
 20
167.01215589368667
 40
0.1518352611644848
  0
CIRCLE
  8
_1-0_
  6
CONTINUOUS
 62
    7
 10
196.15203032622466
 20
165.46568174619932
 40
0.1518352611644848
  0
CIRCLE
  8
_1-0_
  6
CONTINUOUS
 62
    7
 10
204.01126346072635
 20
164.92252659153294
 40
0.1518352611644848
  0
CIRCLE
  8
_1-0_
  6
CONTINUOUS
 62
    7
 10
202.64477704022383
 20
165.68168433936867
 40
0.1518352611644848
  0
CIRCLE
  8
_1-0_
  6
CONTINUOUS
 62
    7
 10
199.45631697371201
 20
166.59267116237331
 40
0.1518352611644848
  0
CIRCLE
  8
_1-0_
  6
CONTINUOUS
 62
    7
 10
199.15265882337417
 20
165.07435566670188
 40
0.1518352611644848
  0
CIRCLE
  8
_1-0_
  6
CONTINUOUS
 62
    7
 10
197.93800147804055
 20
167.65548706054687
 40
0.1518352611644848
  0
CIRCLE
  8
_1-0_
  6
CONTINUOUS
 62
    7
 10
201.73379021721919
 20
167.35182891020904
 40
0.1518352611644848
  0
CIRCLE
  8
_1-0_
  6
CONTINUOUS
 62
    7
 10
205.37774988122891
 20
167.19999983504013
 40
0.1518352611644848
  0
CIRCLE
  8
_1-0_
  6
CONTINUOUS
 62
    7
 10
214.33578903610643
 20
166.74450023754224
 40
0.1518352611644848
  0
CIRCLE
  8
_1-0_
  6
CONTINUOUS
 62
    7
 10
216.46142083245357
 20
166.4408420872044
 40
0.1518352611644848
  0
CIRCLE
  8
_1-0_
  6
CONTINUOUS
 62
    7
 10
211.29915804476352
 20
165.83351341453761
 40
0.1518352611644848
  0
CIRCLE
  8
_1-0_
  6
CONTINUOUS
 62
    7
 10
210.38818359375
 20
166.28901301203547
 40
0.1518352611644848
  0
CIRCLE
  8
_1-0_
  6
CONTINUOUS
 62
    7
 10
207.35155260240711
 20
165.37801381703972
 40
0.1518352611644848
  0
CIRCLE
  8
_1-0_
  6
CONTINUOUS
 62
    7
 10
209.17352624841641
 20
166.89632931271115
 40
0.1518352611644848
  0
CIRCLE
  8
_1-0_
  6
CONTINUOUS
 62
    7
 10
210.69184174408784
 20
166.74450023754224
 40
0.1518352611644848
  0
CIRCLE
  8
_1-0_
  6
CONTINUOUS
 62
    7
 10
212.96930261560391
 20
165.07435566670188
 40
0.1518352611644848
  0
CIRCLE
  8
_1-0_
  6
CONTINUOUS
 62
    7
 10
216.15776268211573
 20
165.22618474187078
 40
0.1518352611644848
  0
CIRCLE
  8
_1-0_
  6
CONTINUOUS
 62
    7
 10
216.61327465160474
 20
165.37801381703972
 40
0.1518352611644848
  0
CIRCLE
  8
_1-0_
  6
CONTINUOUS
 62
    7
 10
214.63944718644427
 20
167.19999983504013
 40
0.1518352611644848
  0
CIRCLE
  8
_1-0_
  6
CONTINUOUS
 62
    7
 10
214.48761811127534
 20
167.95915758287586
 40
0.1518352611644848
  0
CIRCLE
  8
_1-0_
  6
CONTINUOUS
 62
    7
 10
218.28339447846284
 20
167.80732850770693
 40
0.1518352611644848
  0
CIRCLE
  8
_1-0_
  6
CONTINUOUS
 62
    7
 10
220.56088009396117
 20
167.19999983504013
 40
0.1518352611644848
  0
CIRCLE
  8
_1-0_
  6
CONTINUOUS
 62
    7
 10
218.89073552312078
 20
165.37801381703972
 40
0.1518352611644848
  0
CIRCLE
  8
_1-0_
  6
CONTINUOUS
 62
    7
 10
224.37543714368667
 20
167.01215589368667
 40
0.1518352611644848
  0
CIRCLE
  8
_1-0_
  6
CONTINUOUS
 62
    7
 10
222.44233827333193
 20
165.46568174619932
 40
0.1518352611644848
  0
CIRCLE
  8
_1-0_
  6
CONTINUOUS
 62
    7
 10
229.14169723923143
 20
164.92252659153294
 40
0.1518352611644848
  0
CIRCLE
  8
_1-0_
  6
CONTINUOUS
 62
    7
 10
227.77521081872891
 20
165.68168433936867
 40
0.1518352611644848
  0
CIRCLE
  8
_1-0_
  6
CONTINUOUS
 62
    7
 10
224.58675075221709
 20
166.59267116237331
 40
0.1518352611644848
  0
CIRCLE
  8
_1-0_
  6
CONTINUOUS
 62
    7
 10
224.28309260187925
 20
165.07435566670188
 40
0.1518352611644848
  0
CIRCLE
  8
_1-0_
  6
CONTINUOUS
 62
    7
 10
223.06843525654563
 20
167.65548706054687
 40
0.1518352611644848
  0
CIRCLE
  8
_1-0_
  6
CONTINUOUS
 62
    7
 10
226.86421162373313
 20
167.35182891020904
 40
0.1518352611644848
  0
CIRCLE
  8
_1-0_
  6
CONTINUOUS
 62
    7
 10
230.50818365973396
 20
167.19999983504013
 40
0.1518352611644848
  0
CIRCLE
  8
_1-0_
  6
CONTINUOUS
 62
    7
 10
239.46622281461151
 20
166.74450023754224
 40
0.1518352611644848
  0
CIRCLE
  8
_1-0_
  6
CONTINUOUS
 62
    7
 10
241.59185461095862
 20
166.4408420872044
 40
0.1518352611644848
  0
CIRCLE
  8
_1-0_
  6
CONTINUOUS
 62
    7
 10
236.42959182326859
 20
165.83351341453761
 40
0.1518352611644848
  0
CIRCLE
  8
_1-0_
  6
CONTINUOUS
 62
    7
 10
235.51861737225508
 20
166.28901301203547
 40
0.1518352611644848
  0
CIRCLE
  8
_1-0_
  6
CONTINUOUS
 62
    7
 10
232.48198638091216
 20
165.37801381703972
 40
0.1518352611644848
  0
CIRCLE
  8
_1-0_
  6
CONTINUOUS
 62
    7
 10
234.30396002692146
 20
166.89632931271115
 40
0.1518352611644848
  0
CIRCLE
  8
_1-0_
  6
CONTINUOUS
 62
    7
 10
235.82227552259292
 20
166.74450023754224
 40
0.1518352611644848
  0
CIRCLE
  8
_1-0_
  6
CONTINUOUS
 62
    7
 10
238.09973639410896
 20
165.07435566670188
 40
0.1518352611644848
  0
CIRCLE
  8
_1-0_
  6
CONTINUOUS
 62
    7
 10
241.28819646062078
 20
165.22618474187078
 40
0.1518352611644848
  0
CIRCLE
  8
_1-0_
  6
CONTINUOUS
 62
    7
 10
241.74370843010982
 20
165.37801381703972
 40
0.1518352611644848
  0
CIRCLE
  8
_1-0_
  6
CONTINUOUS
 62
    7
 10
239.76988096494935
 20
167.19999983504013
 40
0.1518352611644848
  0
CIRCLE
  8
_1-0_
  6
CONTINUOUS
 62
    7
 10
239.61805188978042
 20
167.95915758287586
 40
0.1518352611644848
  0
CIRCLE
  8
_1-0_
  6
CONTINUOUS
 62
    7
 10
243.41382825696792
 20
167.80732850770693
 40
0.1518352611644848
  0
CIRCLE
  8
_1-0_
  6
CONTINUOUS
 62
    7
 10
245.69131387246622
 20
167.19999983504013
 40
0.1518352611644848
  0
CIRCLE
  8
_1-0_
  6
CONTINUOUS
 62
    7
 10
244.02116930162586
 20
165.37801381703972
 40
0.1518352611644848
  0
CIRCLE
  8
_1-0_
  6
CONTINUOUS
 62
    7
 10
249.50587092219175
 20
167.01215589368667
 40
0.1518352611644848
  0
CIRCLE
  8
_1-0_
  6
CONTINUOUS
 62
    7
 10
247.57277205183701
 20
165.46568174619932
 40
0.1518352611644848
  0
CIRCLE
  8
_1-0_
  6
CONTINUOUS
 62
    7
 10
258.91160294816302
 20
164.92252659153294
 40
0.1518352611644848
  0
CIRCLE
  8
_1-0_
  6
CONTINUOUS
 62
    7
 10
257.54511652766047
 20
165.68168433936867
 40
0.1518352611644848
  0
CIRCLE
  8
_1-0_
  6
CONTINUOUS
 62
    7
 10
254.35665646114867
 20
166.59267116237331
 40
0.1518352611644848
  0
CIRCLE
  8
_1-0_
  6
CONTINUOUS
 62
    7
 10
254.05299831081084
 20
165.07435566670188
 40
0.1518352611644848
  0
CIRCLE
  8
_1-0_
  6
CONTINUOUS
 62
    7
 10
252.83834096547722
 20
167.65548706054687
 40
0.1518352611644848
  0
CIRCLE
  8
_1-0_
  6
CONTINUOUS
 62
    7
 10
256.63414207664698
 20
167.35182891020904
 40
0.1518352611644848
  0
CIRCLE
  8
_1-0_
  6
CONTINUOUS
 62
    7
 10
260.27808936866558
 20
167.19999983504013
 40
0.1518352611644848
  0
CIRCLE
  8
_1-0_
  6
CONTINUOUS
 62
    7
 10
269.23612852354307
 20
166.74450023754224
 40
0.1518352611644848
  0
CIRCLE
  8
_1-0_
  6
CONTINUOUS
 62
    7
 10
271.36176031989021
 20
166.4408420872044
 40
0.1518352611644848
  0
CIRCLE
  8
_1-0_
  6
CONTINUOUS
 62
    7
 10
266.19949753220021
 20
165.83351341453761
 40
0.1518352611644848
  0
CIRCLE
  8
_1-0_
  6
CONTINUOUS
 62
    7
 10
265.28852308118667
 20
166.28901301203547
 40
0.1518352611644848
  0
CIRCLE
  8
_1-0_
  6
CONTINUOUS
 62
    7
 10
262.25189208984375
 20
165.37801381703972
 40
0.1518352611644848
  0
CIRCLE
  8
_1-0_
  6
CONTINUOUS
 62
    7
 10
264.07386573585308
 20
166.89632931271115
 40
0.1518352611644848
  0
CIRCLE
  8
_1-0_
  6
CONTINUOUS
 62
    7
 10
265.59218123152453
 20
166.74450023754224
 40
0.1518352611644848
  0
CIRCLE
  8
_1-0_
  6
CONTINUOUS
 62
    7
 10
267.86964210304058
 20
165.07435566670188
 40
0.1518352611644848
  0
CIRCLE
  8
_1-0_
  6
CONTINUOUS
 62
    7
 10
271.0581021695524
 20
165.22618474187078
 40
0.1518352611644848
  0
CIRCLE
  8
_1-0_
  6
CONTINUOUS
 62
    7
 10
271.51358939505911
 20
165.37801381703972
 40
0.1518352611644848
  0
CIRCLE
  8
_1-0_
  6
CONTINUOUS
 62
    7
 10
269.53978667388094
 20
167.19999983504013
 40
0.1518352611644848
  0
CIRCLE
  8
_1-0_
  6
CONTINUOUS
 62
    7
 10
269.38795759871203
 20
167.95915758287586
 40
0.1518352611644848
  0
CIRCLE
  8
_1-0_
  6
CONTINUOUS
 62
    7
 10
273.18375870988177
 20
167.80732850770693
 40
0.1518352611644848
  0
CIRCLE
  8
_1-0_
  6
CONTINUOUS
 62
    7
 10
275.46121958139781
 20
167.19999983504013
 40
0.1518352611644848
  0
CIRCLE
  8
_1-0_
  6
CONTINUOUS
 62
    7
 10
273.79107501055745
 20
165.37801381703972
 40
0.1518352611644848
  0
CIRCLE
  8
_1-0_
  6
CONTINUOUS
 62
    7
 10
279.27577663112334
 20
167.01215589368667
 40
0.1518352611644848
  0
CIRCLE
  8
_1-0_
  6
CONTINUOUS
 62
    7
 10
277.34267776076859
 20
165.46568174619932
 40
0.1518352611644848
  0
CIRCLE
  8
_1-0_
  6
CONTINUOUS
 62
    7
 10
281.33568841057854
 20
164.92252659153294
 40
0.1518352611644848
  0
CIRCLE
  8
_1-0_
  6
CONTINUOUS
 62
    7
 10
279.96920199007604
 20
165.68168433936867
 40
0.1518352611644848
  0
CIRCLE
  8
_1-0_
  6
CONTINUOUS
 62
    7
 10
276.78074192356422
 20
166.59267116237331
 40
0.1518352611644848
  0
CIRCLE
  8
_1-0_
  6
CONTINUOUS
 62
    7
 10
276.47708377322635
 20
165.07435566670188
 40
0.1518352611644848
  0
CIRCLE
  8
_1-0_
  6
CONTINUOUS
 62
    7
 10
275.26242642789276
 20
167.65548706054687
 40
0.1518352611644848
  0
CIRCLE
  8
_1-0_
  6
CONTINUOUS
 62
    7
 10
279.0582275390625
 20
167.35182891020904
 40
0.1518352611644848
  0
CIRCLE
  8
_1-0_
  6
CONTINUOUS
 62
    7
 10
282.70217483108109
 20
167.19999983504013
 40
0.1518352611644848
  0
CIRCLE
  8
_1-0_
  6
CONTINUOUS
 62
    7
 10
291.66021398595865
 20
166.74450023754224
 40
0.1518352611644848
  0
CIRCLE
  8
_1-0_
  6
CONTINUOUS
 62
    7
 10
293.78584578230578
 20
166.4408420872044
 40
0.1518352611644848
  0
CIRCLE
  8
_1-0_
  6
CONTINUOUS
 62
    7
 10
288.62358299461573
 20
165.83351341453761
 40
0.1518352611644848
  0
CIRCLE
  8
_1-0_
  6
CONTINUOUS
 62
    7
 10
287.71260854360219
 20
166.28901301203547
 40
0.1518352611644848
  0
CIRCLE
  8
_1-0_
  6
CONTINUOUS
 62
    7
 10
284.67597755225933
 20
165.37801381703972
 40
0.1518352611644848
  0
CIRCLE
  8
_1-0_
  6
CONTINUOUS
 62
    7
 10
286.49795119826859
 20
166.89632931271115
 40
0.1518352611644848
  0
CIRCLE
  8
_1-0_
  6
CONTINUOUS
 62
    7
 10
288.01626669394005
 20
166.74450023754224
 40
0.1518352611644848
  0
CIRCLE
  8
_1-0_
  6
CONTINUOUS
 62
    7
 10
290.29372756545609
 20
165.07435566670188
 40
0.1518352611644848
  0
CIRCLE
  8
_1-0_
  6
CONTINUOUS
 62
    7
 10
293.48218763196792
 20
165.22618474187078
 40
0.1518352611644848
  0
CIRCLE
  8
_1-0_
  6
CONTINUOUS
 62
    7
 10
293.93767485747469
 20
165.37801381703972
 40
0.1518352611644848
  0
CIRCLE
  8
_1-0_
  6
CONTINUOUS
 62
    7
 10
291.96387213629646
 20
167.19999983504013
 40
0.1518352611644848
  0
CIRCLE
  8
_1-0_
  6
CONTINUOUS
 62
    7
 10
291.81204306112755
 20
167.95915758287586
 40
0.1518352611644848
  0
CIRCLE
  8
_1-0_
  6
CONTINUOUS
 62
    7
 10
295.60784417229729
 20
167.80732850770693
 40
0.1518352611644848
  0
CIRCLE
  8
_1-0_
  6
CONTINUOUS
 62
    7
 10
296.21516047297297
 20
165.37801381703972
 40
0.1518352611644848
  0
CIRCLE
  8
_1-0_
  6
CONTINUOUS
 62
    7
 10
54.782947849582968
 20
161.32082964922932
 40
0.1518352611644848
  0
CIRCLE
  8
_1-0_
  6
CONTINUOUS
 62
    7
 10
56.908592017921251
 20
162.53548699456294
 40
0.1518352611644848
  0
CIRCLE
  8
_1-0_
  6
CONTINUOUS
 62
    7
 10
59.337894336597344
 20
161.77632924672722
 40
0.1518352611644848
  0
CIRCLE
  8
_1-0_
  6
CONTINUOUS
 62
    7
 10
67.081288518132396
 20
160.86534242372255
 40
0.1518352611644848
  0
CIRCLE
  8
_1-0_
  6
CONTINUOUS
 62
    7
 10
65.714808283625416
 20
161.62450017155828
 40
0.1518352611644848
  0
CIRCLE
  8
_1-0_
  6
CONTINUOUS
 62
    7
 10
62.526348217113593
 20
162.53548699456294
 40
0.1518352611644848
  0
CIRCLE
  8
_1-0_
  6
CONTINUOUS
 62
    7
 10
62.22268388078021
 20
161.01717149889149
 40
0.1518352611644848
  0
CIRCLE
  8
_1-0_
  6
CONTINUOUS
 62
    7
 10
58.73056566393052
 20
160.71351334855365
 40
0.1518352611644848
  0
CIRCLE
  8
_1-0_
  6
CONTINUOUS
 62
    7
 10
55.845769933752109
 20
161.01717149889149
 40
0.1518352611644848
  0
CIRCLE
  8
_1-0_
  6
CONTINUOUS
 62
    7
 10
54.023790101747267
 20
162.83914514490078
 40
0.1518352611644848
  0
CIRCLE
  8
_1-0_
  6
CONTINUOUS
 62
    7
 10
55.390276522249792
 20
163.29464474239865
 40
0.1518352611644848
  0
CIRCLE
  8
_1-0_
  6
CONTINUOUS
 62
    7
 10
61.008038907437708
 20
163.59830289273648
 40
0.1518352611644848
  0
CIRCLE
  8
_1-0_
  6
CONTINUOUS
 62
    7
 10
64.803821460620782
 20
163.29464474239865
 40
0.1518352611644848
  0
CIRCLE
  8
_1-0_
  6
CONTINUOUS
 62
    7
 10
72.364079243428023
 20
161.32082964922932
 40
0.1518352611644848
  0
CIRCLE
  8
_1-0_
  6
CONTINUOUS
 62
    7
 10
74.489723411766249
 20
162.53548699456294
 40
0.1518352611644848
  0
CIRCLE
  8
_1-0_
  6
CONTINUOUS
 62
    7
 10
76.919025730442343
 20
161.77632924672722
 40
0.1518352611644848
  0
CIRCLE
  8
_1-0_
  6
CONTINUOUS
 62
    7
 10
84.662419911977409
 20
160.86534242372255
 40
0.1518352611644848
  0
CIRCLE
  8
_1-0_
  6
CONTINUOUS
 62
    7
 10
83.295939677470443
 20
161.62450017155828
 40
0.1518352611644848
  0
CIRCLE
  8
_1-0_
  6
CONTINUOUS
 62
    7
 10
80.10747961095862
 20
162.53548699456294
 40
0.1518352611644848
  0
CIRCLE
  8
_1-0_
  6
CONTINUOUS
 62
    7
 10
79.803815274625208
 20
161.01717149889149
 40
0.1518352611644848
  0
CIRCLE
  8
_1-0_
  6
CONTINUOUS
 62
    7
 10
76.311697057775547
 20
160.71351334855365
 40
0.1518352611644848
  0
CIRCLE
  8
_1-0_
  6
CONTINUOUS
 62
    7
 10
73.426901327597136
 20
161.01717149889149
 40
0.1518352611644848
  0
CIRCLE
  8
_1-0_
  6
CONTINUOUS
 62
    7
 10
71.604921495592293
 20
162.83914514490078
 40
0.1518352611644848
  0
CIRCLE
  8
_1-0_
  6
CONTINUOUS
 62
    7
 10
72.97140791609479
 20
163.29464474239865
 40
0.1518352611644848
  0
CIRCLE
  8
_1-0_
  6
CONTINUOUS
 62
    7
 10
78.589170301282735
 20
163.59830289273648
 40
0.1518352611644848
  0
CIRCLE
  8
_1-0_
  6
CONTINUOUS
 62
    7
 10
82.384952854465794
 20
163.29464474239865
 40
0.1518352611644848
  0
CIRCLE
  8
_1-0_
  6
CONTINUOUS
 62
    7
 10
84.084839691986915
 20
160.87001903637037
 40
0.1518352611644848
  0
CIRCLE
  8
_1-0_
  6
CONTINUOUS
 62
    7
 10
86.210483860325169
 20
162.08467638170399
 40
0.1518352611644848
  0
CIRCLE
  8
_1-0_
  6
CONTINUOUS
 62
    7
 10
88.639786179001277
 20
161.32551863386826
 40
0.1518352611644848
  0
CIRCLE
  8
_1-0_
  6
CONTINUOUS
 62
    7
 10
96.383180360536329
 20
160.41453181086359
 40
0.1518352611644848
  0
CIRCLE
  8
_1-0_
  6
CONTINUOUS
 62
    7
 10
95.016700126029349
 20
161.17368955869932
 40
0.1518352611644848
  0
CIRCLE
  8
_1-0_
  6
CONTINUOUS
 62
    7
 10
91.828240059517526
 20
162.08467638170399
 40
0.1518352611644848
  0
CIRCLE
  8
_1-0_
  6
CONTINUOUS
 62
    7
 10
91.524575723184128
 20
160.56636088603253
 40
0.1518352611644848
  0
CIRCLE
  8
_1-0_
  6
CONTINUOUS
 62
    7
 10
88.032457506334467
 20
160.26270273569469
 40
0.1518352611644848
  0
CIRCLE
  8
_1-0_
  6
CONTINUOUS
 62
    7
 10
85.147661776156042
 20
160.56636088603253
 40
0.1518352611644848
  0
CIRCLE
  8
_1-0_
  6
CONTINUOUS
 62
    7
 10
83.325681944151185
 20
162.38833453204182
 40
0.1518352611644848
  0
CIRCLE
  8
_1-0_
  6
CONTINUOUS
 62
    7
 10
84.692168364653725
 20
162.84383412953972
 40
0.1518352611644848
  0
CIRCLE
  8
_1-0_
  6
CONTINUOUS
 62
    7
 10
90.309930749841641
 20
163.14749227987755
 40
0.1518352611644848
  0
CIRCLE
  8
_1-0_
  6
CONTINUOUS
 62
    7
 10
94.105713303024714
 20
162.84383412953972
 40
0.1518352611644848
  0
CIRCLE
  8
_1-0_
  6
CONTINUOUS
 62
    7
 10
99.411973695497267
 20
160.41923316749367
 40
0.1518352611644848
  0
CIRCLE
  8
_1-0_
  6
CONTINUOUS
 62
    7
 10
101.53761786383552
 20
161.63389051282729
 40
0.1518352611644848
  0
CIRCLE
  8
_1-0_
  6
CONTINUOUS
 62
    7
 10
103.96691399651606
 20
160.87473276499156
 40
0.1518352611644848
  0
CIRCLE
  8
_1-0_
  6
CONTINUOUS
 62
    7
 10
111.71032055004224
 20
159.96374594198693
 40
0.1518352611644848
  0
CIRCLE
  8
_1-0_
  6
CONTINUOUS
 62
    7
 10
110.3438341295397
 20
160.72290368982266
 40
0.1518352611644848
  0
CIRCLE
  8
_1-0_
  6
CONTINUOUS
 62
    7
 10
107.15537406302788
 20
161.63389051282729
 40
0.1518352611644848
  0
CIRCLE
  8
_1-0_
  6
CONTINUOUS
 62
    7
 10
106.85171591269004
 20
160.11557501715583
 40
0.1518352611644848
  0
CIRCLE
  8
_1-0_
  6
CONTINUOUS
 62
    7
 10
103.3595915098448
 20
159.811916866818
 40
0.1518352611644848
  0
CIRCLE
  8
_1-0_
  6
CONTINUOUS
 62
    7
 10
100.47479577966639
 20
160.11557501715583
 40
0.1518352611644848
  0
CIRCLE
  8
_1-0_
  6
CONTINUOUS
 62
    7
 10
98.652815947661537
 20
161.93754866316513
 40
0.1518352611644848
  0
CIRCLE
  8
_1-0_
  6
CONTINUOUS
 62
    7
 10
100.01930236816406
 20
162.39304826066302
 40
0.1518352611644848
  0
CIRCLE
  8
_1-0_
  6
CONTINUOUS
 62
    7
 10
105.63705856735642
 20
162.69670641100086
 40
0.1518352611644848
  0
CIRCLE
  8
_1-0_
  6
CONTINUOUS
 62
    7
 10
109.43284730653505
 20
162.39304826066302
 40
0.1518352611644848
  0
CIRCLE
  8
_1-0_
  6
CONTINUOUS
 62
    7
 10
102.11676314070418
 20
161.32082964922932
 40
0.1518352611644848
  0
CIRCLE
  8
_1-0_
  6
CONTINUOUS
 62
    7
 10
104.24241349503801
 20
162.53548699456294
 40
0.1518352611644848
  0
CIRCLE
  8
_1-0_
  6
CONTINUOUS
 62
    7
 10
106.67170344172298
 20
161.77632924672722
 40
0.1518352611644848
  0
CIRCLE
  8
_1-0_
  6
CONTINUOUS
 62
    7
 10
114.41510999524917
 20
160.86534242372255
 40
0.1518352611644848
  0
CIRCLE
  8
_1-0_
  6
CONTINUOUS
 62
    7
 10
113.04862357474663
 20
161.62450017155828
 40
0.1518352611644848
  0
CIRCLE
  8
_1-0_
  6
CONTINUOUS
 62
    7
 10
109.86016350823481
 20
162.53548699456294
 40
0.1518352611644848
  0
CIRCLE
  8
_1-0_
  6
CONTINUOUS
 62
    7
 10
109.55650535789697
 20
161.01717149889149
 40
0.1518352611644848
  0
CIRCLE
  8
_1-0_
  6
CONTINUOUS
 62
    7
 10
106.06438714104731
 20
160.71351334855365
 40
0.1518352611644848
  0
CIRCLE
  8
_1-0_
  6
CONTINUOUS
 62
    7
 10
103.17958522487332
 20
161.01717149889149
 40
0.1518352611644848
  0
CIRCLE
  8
_1-0_
  6
CONTINUOUS
 62
    7
 10
101.35760539286846
 20
162.83914514490078
 40
0.1518352611644848
  0
CIRCLE
  8
_1-0_
  6
CONTINUOUS
 62
    7
 10
102.72409181337099
 20
163.29464474239865
 40
0.1518352611644848
  0
CIRCLE
  8
_1-0_
  6
CONTINUOUS
 62
    7
 10
108.34184801256335
 20
163.59830289273648
 40
0.1518352611644848
  0
CIRCLE
  8
_1-0_
  6
CONTINUOUS
 62
    7
 10
112.13763675174198
 20
163.29464474239865
 40
0.1518352611644848
  0
CIRCLE
  8
_1-0_
  6
CONTINUOUS
 62
    7
 10
115.64070418074326
 20
162.22242613096495
 40
0.1518352611644848
  0
CIRCLE
  8
_1-0_
  6
CONTINUOUS
 62
    7
 10
117.76636072107264
 20
163.43708347629857
 40
0.1518352611644848
  0
CIRCLE
  8
_1-0_
  6
CONTINUOUS
 62
    7
 10
120.1956506677576
 20
162.67792572846284
 40
0.1518352611644848
  0
CIRCLE
  8
_1-0_
  6
CONTINUOUS
 62
    7
 10
127.93905722128379
 20
161.7669389054582
 40
0.1518352611644848
  0
CIRCLE
  8
_1-0_
  6
CONTINUOUS
 62
    7
 10
126.57257080078125
 20
162.52609665329393
 40
0.1518352611644848
  0
CIRCLE
  8
_1-0_
  6
CONTINUOUS
 62
    7
 10
123.38411073426943
 20
163.43708347629857
 40
0.1518352611644848
  0
CIRCLE
  8
_1-0_
  6
CONTINUOUS
 62
    7
 10
123.08045258393159
 20
161.91876798062711
 40
0.1518352611644848
  0
CIRCLE
  8
_1-0_
  6
CONTINUOUS
 62
    7
 10
119.58833436708193
 20
161.61510983028927
 40
0.1518352611644848
  0
CIRCLE
  8
_1-0_
  6
CONTINUOUS
 62
    7
 10
116.70353245090794
 20
161.91876798062711
 40
0.1518352611644848
  0
CIRCLE
  8
_1-0_
  6
CONTINUOUS
 62
    7
 10
114.88155880489866
 20
163.74074162663641
 40
0.1518352611644848
  0
CIRCLE
  8
_1-0_
  6
CONTINUOUS
 62
    7
 10
116.24804522540119
 20
164.1962412241343
 40
0.1518352611644848
  0
CIRCLE
  8
_1-0_
  6
CONTINUOUS
 62
    7
 10
121.86579523859798
 20
164.49989937447214
 40
0.1518352611644848
  0
CIRCLE
  8
_1-0_
  6
CONTINUOUS
 62
    7
 10
125.66158397777662
 20
164.1962412241343
 40
0.1518352611644848
  0
CIRCLE
  8
_1-0_
  6
CONTINUOUS
 62
    7
 10
140.88543041332349
 20
161.77161551810602
 40
0.1518352611644848
  0
CIRCLE
  8
_1-0_
  6
CONTINUOUS
 62
    7
 10
143.01106220967063
 20
162.98627286343961
 40
0.1518352611644848
  0
CIRCLE
  8
_1-0_
  6
CONTINUOUS
 62
    7
 10
145.44037690033784
 20
162.22711511560391
 40
0.1518352611644848
  0
CIRCLE
  8
_1-0_
  6
CONTINUOUS
 62
    7
 10
153.18375870988177
 20
161.31612829259925
 40
0.1518352611644848
  0
CIRCLE
  8
_1-0_
  6
CONTINUOUS
 62
    7
 10
151.81728466137037
 20
162.07528604043497
 40
0.1518352611644848
  0
CIRCLE
  8
_1-0_
  6
CONTINUOUS
 62
    7
 10
148.62882459485854
 20
162.98627286343961
 40
0.1518352611644848
  0
CIRCLE
  8
_1-0_
  6
CONTINUOUS
 62
    7
 10
148.32515407252956
 20
161.46795736776818
 40
0.1518352611644848
  0
CIRCLE
  8
_1-0_
  6
CONTINUOUS
 62
    7
 10
144.8330358556799
 20
161.16429921743034
 40
0.1518352611644848
  0
CIRCLE
  8
_1-0_
  6
CONTINUOUS
 62
    7
 10
141.94824631149706
 20
161.46795736776818
 40
0.1518352611644848
  0
CIRCLE
  8
_1-0_
  6
CONTINUOUS
 62
    7
 10
140.12626029349664
 20
163.28993101377745
 40
0.1518352611644848
  0
CIRCLE
  8
_1-0_
  6
CONTINUOUS
 62
    7
 10
141.49274671399917
 20
163.74543061127534
 40
0.1518352611644848
  0
CIRCLE
  8
_1-0_
  6
CONTINUOUS
 62
    7
 10
147.11052147117823
 20
164.04908876161318
 40
0.1518352611644848
  0
CIRCLE
  8
_1-0_
  6
CONTINUOUS
 62
    7
 10
150.90629783836573
 20
163.74543061127534
 40
0.1518352611644848
  0
CIRCLE
  8
_1-0_
  6
CONTINUOUS
 62
    7
 10
144.49181634026604
 20
161.32082964922932
 40
0.1518352611644848
  0
CIRCLE
  8
_1-0_
  6
CONTINUOUS
 62
    7
 10
146.61744813661318
 20
162.53548699456294
 40
0.1518352611644848
  0
CIRCLE
  8
_1-0_
  6
CONTINUOUS
 62
    7
 10
149.04676282728042
 20
161.77632924672722
 40
0.1518352611644848
  0
CIRCLE
  8
_1-0_
  6
CONTINUOUS
 62
    7
 10
156.79014463682432
 20
160.86534242372255
 40
0.1518352611644848
  0
CIRCLE
  8
_1-0_
  6
CONTINUOUS
 62
    7
 10
155.42367058831294
 20
161.62450017155828
 40
0.1518352611644848
  0
CIRCLE
  8
_1-0_
  6
CONTINUOUS
 62
    7
 10
152.23521052180109
 20
162.53548699456294
 40
0.1518352611644848
  0
CIRCLE
  8
_1-0_
  6
CONTINUOUS
 62
    7
 10
151.93153999947214
 20
161.01717149889149
 40
0.1518352611644848
  0
CIRCLE
  8
_1-0_
  6
CONTINUOUS
 62
    7
 10
148.43942178262247
 20
160.71351334855365
 40
0.1518352611644848
  0
CIRCLE
  8
_1-0_
  6
CONTINUOUS
 62
    7
 10
145.55463223843961
 20
161.01717149889149
 40
0.1518352611644848
  0
CIRCLE
  8
_1-0_
  6
CONTINUOUS
 62
    7
 10
143.73264622043919
 20
162.83914514490078
 40
0.1518352611644848
  0
CIRCLE
  8
_1-0_
  6
CONTINUOUS
 62
    7
 10
145.09913264094172
 20
163.29464474239865
 40
0.1518352611644848
  0
CIRCLE
  8
_1-0_
  6
CONTINUOUS
 62
    7
 10
150.71690739812078
 20
163.59830289273648
 40
0.1518352611644848
  0
CIRCLE
  8
_1-0_
  6
CONTINUOUS
 62
    7
 10
154.51268376530828
 20
163.29464474239865
 40
0.1518352611644848
  0
CIRCLE
  8
_1-0_
  6
CONTINUOUS
 62
    7
 10
125.10747961095862
 20
161.32082964922932
 40
0.1518352611644848
  0
CIRCLE
  8
_1-0_
  6
CONTINUOUS
 62
    7
 10
127.23313615128801
 20
162.53548699456294
 40
0.1518352611644848
  0
CIRCLE
  8
_1-0_
  6
CONTINUOUS
 62
    7
 10
129.66242609797297
 20
161.77632924672722
 40
0.1518352611644848
  0
CIRCLE
  8
_1-0_
  6
CONTINUOUS
 62
    7
 10
137.40583265149917
 20
160.86534242372255
 40
0.1518352611644848
  0
CIRCLE
  8
_1-0_
  6
CONTINUOUS
 62
    7
 10
136.03934623099664
 20
161.62450017155828
 40
0.1518352611644848
  0
CIRCLE
  8
_1-0_
  6
CONTINUOUS
 62
    7
 10
132.85088616448479
 20
162.53548699456294
 40
0.1518352611644848
  0
CIRCLE
  8
_1-0_
  6
CONTINUOUS
 62
    7
 10
132.54722801414698
 20
161.01717149889149
 40
0.1518352611644848
  0
CIRCLE
  8
_1-0_
  6
CONTINUOUS
 62
    7
 10
129.05510979729729
 20
160.71351334855365
 40
0.1518352611644848
  0
CIRCLE
  8
_1-0_
  6
CONTINUOUS
 62
    7
 10
126.17030788112332
 20
161.01717149889149
 40
0.1518352611644848
  0
CIRCLE
  8
_1-0_
  6
CONTINUOUS
 62
    7
 10
124.34833423511402
 20
162.83914514490078
 40
0.1518352611644848
  0
CIRCLE
  8
_1-0_
  6
CONTINUOUS
 62
    7
 10
125.71482065561656
 20
163.29464474239865
 40
0.1518352611644848
  0
CIRCLE
  8
_1-0_
  6
CONTINUOUS
 62
    7
 10
131.33257066881336
 20
163.59830289273648
 40
0.1518352611644848
  0
CIRCLE
  8
_1-0_
  6
CONTINUOUS
 62
    7
 10
135.12835940799198
 20
163.29464474239865
 40
0.1518352611644848
  0
CIRCLE
  8
_1-0_
  6
CONTINUOUS
 62
    7
 10
158.46654943517737
 20
161.77161551810602
 40
0.1518352611644848
  0
CIRCLE
  8
_1-0_
  6
CONTINUOUS
 62
    7
 10
160.59220597550677
 20
162.98627286343961
 40
0.1518352611644848
  0
CIRCLE
  8
_1-0_
  6
CONTINUOUS
 62
    7
 10
163.02149592219172
 20
162.22711511560391
 40
0.1518352611644848
  0
CIRCLE
  8
_1-0_
  6
CONTINUOUS
 62
    7
 10
170.76490247571792
 20
161.31612829259925
 40
0.1518352611644848
  0
CIRCLE
  8
_1-0_
  6
CONTINUOUS
 62
    7
 10
169.39841605521539
 20
162.07528604043497
 40
0.1518352611644848
  0
CIRCLE
  8
_1-0_
  6
CONTINUOUS
 62
    7
 10
166.20995598870357
 20
162.98627286343961
 40
0.1518352611644848
  0
CIRCLE
  8
_1-0_
  6
CONTINUOUS
 62
    7
 10
165.90629783836573
 20
161.46795736776818
 40
0.1518352611644848
  0
CIRCLE
  8
_1-0_
  6
CONTINUOUS
 62
    7
 10
162.41417962151607
 20
161.16429921743034
 40
0.1518352611644848
  0
CIRCLE
  8
_1-0_
  6
CONTINUOUS
 62
    7
 10
159.52937770534206
 20
161.46795736776818
 40
0.1518352611644848
  0
CIRCLE
  8
_1-0_
  6
CONTINUOUS
 62
    7
 10
157.70740405933279
 20
163.28993101377745
 40
0.1518352611644848
  0
CIRCLE
  8
_1-0_
  6
CONTINUOUS
 62
    7
 10
159.07389047983531
 20
163.74543061127534
 40
0.1518352611644848
  0
CIRCLE
  8
_1-0_
  6
CONTINUOUS
 62
    7
 10
164.69164049303211
 20
164.04908876161318
 40
0.1518352611644848
  0
CIRCLE
  8
_1-0_
  6
CONTINUOUS
 62
    7
 10
168.48742923221073
 20
163.74543061127534
 40
0.1518352611644848
  0
CIRCLE
  8
_1-0_
  6
CONTINUOUS
 62
    7
 10
166.13013190192146
 20
162.22242613096495
 40
0.1518352611644848
  0
CIRCLE
  8
_1-0_
  6
CONTINUOUS
 62
    7
 10
168.25576369826859
 20
163.43708347629857
 40
0.1518352611644848
  0
CIRCLE
  8
_1-0_
  6
CONTINUOUS
 62
    7
 10
170.68507838893581
 20
162.67792572846284
 40
0.1518352611644848
  0
CIRCLE
  8
_1-0_
  6
CONTINUOUS
 62
    7
 10
178.42846019847974
 20
161.7669389054582
 40
0.1518352611644848
  0
CIRCLE
  8
_1-0_
  6
CONTINUOUS
 62
    7
 10
177.06198614996833
 20
162.52609665329393
 40
0.1518352611644848
  0
CIRCLE
  8
_1-0_
  6
CONTINUOUS
 62
    7
 10
173.87352608345651
 20
163.43708347629857
 40
0.1518352611644848
  0
CIRCLE
  8
_1-0_
  6
CONTINUOUS
 62
    7
 10
173.56985556112755
 20
161.91876798062711
 40
0.1518352611644848
  0
CIRCLE
  8
_1-0_
  6
CONTINUOUS
 62
    7
 10
170.07773734427789
 20
161.61510983028927
 40
0.1518352611644848
  0
CIRCLE
  8
_1-0_
  6
CONTINUOUS
 62
    7
 10
167.19294780009503
 20
161.91876798062711
 40
0.1518352611644848
  0
CIRCLE
  8
_1-0_
  6
CONTINUOUS
 62
    7
 10
165.37096178209461
 20
163.74074162663641
 40
0.1518352611644848
  0
CIRCLE
  8
_1-0_
  6
CONTINUOUS
 62
    7
 10
166.73744820259714
 20
164.1962412241343
 40
0.1518352611644848
  0
CIRCLE
  8
_1-0_
  6
CONTINUOUS
 62
    7
 10
172.3552229597762
 20
164.49989937447214
 40
0.1518352611644848
  0
CIRCLE
  8
_1-0_
  6
CONTINUOUS
 62
    7
 10
176.1509993269637
 20
164.1962412241343
 40
0.1518352611644848
  0
CIRCLE
  8
_1-0_
  6
CONTINUOUS
 62
    7
 10
181.00646147856841
 20
162.22242613096495
 40
0.1518352611644848
  0
CIRCLE
  8
_1-0_
  6
CONTINUOUS
 62
    7
 10
183.13211801889781
 20
163.43708347629857
 40
0.1518352611644848
  0
CIRCLE
  8
_1-0_
  6
CONTINUOUS
 62
    7
 10
185.56140796558279
 20
162.67792572846284
 40
0.1518352611644848
  0
CIRCLE
  8
_1-0_
  6
CONTINUOUS
 62
    7
 10
193.30481451910896
 20
161.7669389054582
 40
0.1518352611644848
  0
CIRCLE
  8
_1-0_
  6
CONTINUOUS
 62
    7
 10
191.93832809860643
 20
162.52609665329393
 40
0.1518352611644848
  0
CIRCLE
  8
_1-0_
  6
CONTINUOUS
 62
    7
 10
188.74986803209461
 20
163.43708347629857
 40
0.1518352611644848
  0
CIRCLE
  8
_1-0_
  6
CONTINUOUS
 62
    7
 10
188.44620988175677
 20
161.91876798062711
 40
0.1518352611644848
  0
CIRCLE
  8
_1-0_
  6
CONTINUOUS
 62
    7
 10
184.95409166490711
 20
161.61510983028927
 40
0.1518352611644848
  0
CIRCLE
  8
_1-0_
  6
CONTINUOUS
 62
    7
 10
182.06928974873313
 20
161.91876798062711
 40
0.1518352611644848
  0
CIRCLE
  8
_1-0_
  6
CONTINUOUS
 62
    7
 10
180.24731610272383
 20
163.74074162663641
 40
0.1518352611644848
  0
CIRCLE
  8
_1-0_
  6
CONTINUOUS
 62
    7
 10
181.61380252322635
 20
164.1962412241343
 40
0.1518352611644848
  0
CIRCLE
  8
_1-0_
  6
CONTINUOUS
 62
    7
 10
187.23155253642315
 20
164.49989937447214
 40
0.1518352611644848
  0
CIRCLE
  8
_1-0_
  6
CONTINUOUS
 62
    7
 10
191.02734127560177
 20
164.1962412241343
 40
0.1518352611644848
  0
CIRCLE
  8
_1-0_
  6
CONTINUOUS
 62
    7
 10
194.07962283572635
 20
162.22242613096495
 40
0.1518352611644848
  0
CIRCLE
  8
_1-0_
  6
CONTINUOUS
 62
    7
 10
196.20525463207349
 20
163.43708347629857
 40
0.1518352611644848
  0
CIRCLE
  8
_1-0_
  6
CONTINUOUS
 62
    7
 10
198.63456932274073
 20
162.67792572846284
 40
0.1518352611644848
  0
CIRCLE
  8
_1-0_
  6
CONTINUOUS
 62
    7
 10
206.37795113228464
 20
161.7669389054582
 40
0.1518352611644848
  0
CIRCLE
  8
_1-0_
  6
CONTINUOUS
 62
    7
 10
205.01147708377323
 20
162.52609665329393
 40
0.1518352611644848
  0
CIRCLE
  8
_1-0_
  6
CONTINUOUS
 62
    7
 10
201.82301701726141
 20
163.43708347629857
 40
0.1518352611644848
  0
CIRCLE
  8
_1-0_
  6
CONTINUOUS
 62
    7
 10
201.51934649493245
 20
161.91876798062711
 40
0.1518352611644848
  0
CIRCLE
  8
_1-0_
  6
CONTINUOUS
 62
    7
 10
198.02722827808279
 20
161.61510983028927
 40
0.1518352611644848
  0
CIRCLE
  8
_1-0_
  6
CONTINUOUS
 62
    7
 10
195.14243873389992
 20
161.91876798062711
 40
0.1518352611644848
  0
CIRCLE
  8
_1-0_
  6
CONTINUOUS
 62
    7
 10
193.32045271589951
 20
163.74074162663641
 40
0.1518352611644848
  0
CIRCLE
  8
_1-0_
  6
CONTINUOUS
 62
    7
 10
194.68693913640203
 20
164.1962412241343
 40
0.1518352611644848
  0
CIRCLE
  8
_1-0_
  6
CONTINUOUS
 62
    7
 10
200.30471389358109
 20
164.49989937447214
 40
0.1518352611644848
  0
CIRCLE
  8
_1-0_
  6
CONTINUOUS
 62
    7
 10
204.10049026076859
 20
164.1962412241343
 40
0.1518352611644848
  0
CIRCLE
  8
_1-0_
  6
CONTINUOUS
 62
    7
 10
208.50516654349664
 20
162.22242613096495
 40
0.1518352611644848
  0
CIRCLE
  8
_1-0_
  6
CONTINUOUS
 62
    7
 10
210.63082308382602
 20
163.43708347629857
 40
0.1518352611644848
  0
CIRCLE
  8
_1-0_
  6
CONTINUOUS
 62
    7
 10
213.06011303051099
 20
162.67792572846284
 40
0.1518352611644848
  0
CIRCLE
  8
_1-0_
  6
CONTINUOUS
 62
    7
 10
220.80351958403716
 20
161.7669389054582
 40
0.1518352611644848
  0
CIRCLE
  8
_1-0_
  6
CONTINUOUS
 62
    7
 10
219.43703316353464
 20
162.52609665329393
 40
0.1518352611644848
  0
CIRCLE
  8
_1-0_
  6
CONTINUOUS
 62
    7
 10
216.24857309702281
 20
163.43708347629857
 40
0.1518352611644848
  0
CIRCLE
  8
_1-0_
  6
CONTINUOUS
 62
    7
 10
215.94491494668497
 20
161.91876798062711
 40
0.1518352611644848
  0
CIRCLE
  8
_1-0_
  6
CONTINUOUS
 62
    7
 10
212.45279672983531
 20
161.61510983028927
 40
0.1518352611644848
  0
CIRCLE
  8
_1-0_
  6
CONTINUOUS
 62
    7
 10
209.56799481366133
 20
161.91876798062711
 40
0.1518352611644848
  0
CIRCLE
  8
_1-0_
  6
CONTINUOUS
 62
    7
 10
207.74602116765203
 20
163.74074162663641
 40
0.1518352611644848
  0
CIRCLE
  8
_1-0_
  6
CONTINUOUS
 62
    7
 10
209.11250758815459
 20
164.1962412241343
 40
0.1518352611644848
  0
CIRCLE
  8
_1-0_
  6
CONTINUOUS
 62
    7
 10
214.73025760135135
 20
164.49989937447214
 40
0.1518352611644848
  0
CIRCLE
  8
_1-0_
  6
CONTINUOUS
 62
    7
 10
218.52603396853885
 20
164.1962412241343
 40
0.1518352611644848
  0
CIRCLE
  8
_1-0_
  6
CONTINUOUS
 62
    7
 10
214.81631717166385
 20
162.22242613096495
 40
0.1518352611644848
  0
CIRCLE
  8
_1-0_
  6
CONTINUOUS
 62
    7
 10
216.94197371199326
 20
163.43708347629857
 40
0.1518352611644848
  0
CIRCLE
  8
_1-0_
  6
CONTINUOUS
 62
    7
 10
219.37126365867823
 20
162.67792572846284
 40
0.1518352611644848
  0
CIRCLE
  8
_1-0_
  6
CONTINUOUS
 62
    7
 10
227.1146702122044
 20
161.7669389054582
 40
0.1518352611644848
  0
CIRCLE
  8
_1-0_
  6
CONTINUOUS
 62
    7
 10
225.74818379170188
 20
162.52609665329393
 40
0.1518352611644848
  0
CIRCLE
  8
_1-0_
  6
CONTINUOUS
 62
    7
 10
222.55972372519005
 20
163.43708347629857
 40
0.1518352611644848
  0
CIRCLE
  8
_1-0_
  6
CONTINUOUS
 62
    7
 10
222.25606557485222
 20
161.91876798062711
 40
0.1518352611644848
  0
CIRCLE
  8
_1-0_
  6
CONTINUOUS
 62
    7
 10
218.76394735800255
 20
161.61510983028927
 40
0.1518352611644848
  0
CIRCLE
  8
_1-0_
  6
CONTINUOUS
 62
    7
 10
215.87914544182857
 20
161.91876798062711
 40
0.1518352611644848
  0
CIRCLE
  8
_1-0_
  6
CONTINUOUS
 62
    7
 10
214.05717179581927
 20
163.74074162663641
 40
0.1518352611644848
  0
CIRCLE
  8
_1-0_
  6
CONTINUOUS
 62
    7
 10
215.4236582163218
 20
164.1962412241343
 40
0.1518352611644848
  0
CIRCLE
  8
_1-0_
  6
CONTINUOUS
 62
    7
 10
221.04140822951859
 20
164.49989937447214
 40
0.1518352611644848
  0
CIRCLE
  8
_1-0_
  6
CONTINUOUS
 62
    7
 10
224.83718459670609
 20
164.1962412241343
 40
0.1518352611644848
  0
CIRCLE
  8
_1-0_
  6
CONTINUOUS
 62
    7
 10
229.6926714922931
 20
162.67321199984164
 40
0.1518352611644848
  0
CIRCLE
  8
_1-0_
  6
CONTINUOUS
 62
    7
 10
231.81832803262247
 20
163.88786934517526
 40
0.1518352611644848
  0
CIRCLE
  8
_1-0_
  6
CONTINUOUS
 62
    7
 10
234.24761797930745
 20
163.12871159733953
 40
0.1518352611644848
  0
CIRCLE
  8
_1-0_
  6
CONTINUOUS
 62
    7
 10
241.99102453283362
 20
162.2177247743349
 40
0.1518352611644848
  0
CIRCLE
  8
_1-0_
  6
CONTINUOUS
 62
    7
 10
240.62453811233109
 20
162.97688252217063
 40
0.1518352611644848
  0
CIRCLE
  8
_1-0_
  6
CONTINUOUS
 62
    7
 10
237.43607804581927
 20
163.88786934517526
 40
0.1518352611644848
  0
CIRCLE
  8
_1-0_
  6
CONTINUOUS
 62
    7
 10
237.13241989548143
 20
162.3695538495038
 40
0.1518352611644848
  0
CIRCLE
  8
_1-0_
  6
CONTINUOUS
 62
    7
 10
233.64030167863177
 20
162.06589569916596
 40
0.1518352611644848
  0
CIRCLE
  8
_1-0_
  6
CONTINUOUS
 62
    7
 10
230.75549976245779
 20
162.3695538495038
 40
0.1518352611644848
  0
CIRCLE
  8
_1-0_
  6
CONTINUOUS
 62
    7
 10
228.93352611644849
 20
164.1915274955131
 40
0.1518352611644848
  0
CIRCLE
  8
_1-0_
  6
CONTINUOUS
 62
    7
 10
230.30001253695102
 20
164.64702709301099
 40
0.1518352611644848
  0
CIRCLE
  8
_1-0_
  6
CONTINUOUS
 62
    7
 10
235.91776255014781
 20
164.95068524334883
 40
0.1518352611644848
  0
CIRCLE
  8
_1-0_
  6
CONTINUOUS
 62
    7
 10
239.71356366131758
 20
164.64702709301099
 40
0.1518352611644848
  0
CIRCLE
  8
_1-0_
  6
CONTINUOUS
 62
    7
 10
236.90544334617823
 20
162.67321199984164
 40
0.1518352611644848
  0
CIRCLE
  8
_1-0_
  6
CONTINUOUS
 62
    7
 10
239.0310998865076
 20
163.88786934517526
 40
0.1518352611644848
  0
CIRCLE
  8
_1-0_
  6
CONTINUOUS
 62
    7
 10
241.46038983319258
 20
163.12871159733953
 40
0.1518352611644848
  0
CIRCLE
  8
_1-0_
  6
CONTINUOUS
 62
    7
 10
249.20379638671875
 20
162.2177247743349
 40
0.1518352611644848
  0
CIRCLE
  8
_1-0_
  6
CONTINUOUS
 62
    7
 10
247.83730996621622
 20
162.97688252217063
 40
0.1518352611644848
  0
CIRCLE
  8
_1-0_
  6
CONTINUOUS
 62
    7
 10
244.6488498997044
 20
163.88786934517526
 40
0.1518352611644848
  0
CIRCLE
  8
_1-0_
  6
CONTINUOUS
 62
    7
 10
244.34519174936656
 20
162.3695538495038
 40
0.1518352611644848
  0
CIRCLE
  8
_1-0_
  6
CONTINUOUS
 62
    7
 10
240.8530735325169
 20
162.06589569916596
 40
0.1518352611644848
  0
CIRCLE
  8
_1-0_
  6
CONTINUOUS
 62
    7
 10
237.96827161634292
 20
162.3695538495038
 40
0.1518352611644848
  0
CIRCLE
  8
_1-0_
  6
CONTINUOUS
 62
    7
 10
236.14629797033362
 20
164.1915274955131
 40
0.1518352611644848
  0
CIRCLE
  8
_1-0_
  6
CONTINUOUS
 62
    7
 10
237.51278439083617
 20
164.64702709301099
 40
0.1518352611644848
  0
CIRCLE
  8
_1-0_
  6
CONTINUOUS
 62
    7
 10
243.13053440403294
 20
164.95068524334883
 40
0.1518352611644848
  0
CIRCLE
  8
_1-0_
  6
CONTINUOUS
 62
    7
 10
246.92633551520271
 20
164.64702709301099
 40
0.1518352611644848
  0
CIRCLE
  8
_1-0_
  6
CONTINUOUS
 62
    7
 10
248.17541173986487
 20
162.67321199984164
 40
0.1518352611644848
  0
CIRCLE
  8
_1-0_
  6
CONTINUOUS
 62
    7
 10
250.30106828019427
 20
163.88786934517526
 40
0.1518352611644848
  0
CIRCLE
  8
_1-0_
  6
CONTINUOUS
 62
    7
 10
252.73035822687925
 20
163.12871159733953
 40
0.1518352611644848
  0
CIRCLE
  8
_1-0_
  6
CONTINUOUS
 62
    7
 10
260.47376478040542
 20
162.2177247743349
 40
0.1518352611644848
  0
CIRCLE
  8
_1-0_
  6
CONTINUOUS
 62
    7
 10
259.10727835990286
 20
162.97688252217063
 40
0.1518352611644848
  0
CIRCLE
  8
_1-0_
  6
CONTINUOUS
 62
    7
 10
255.91881829339107
 20
163.88786934517526
 40
0.1518352611644848
  0
CIRCLE
  8
_1-0_
  6
CONTINUOUS
 62
    7
 10
255.61516014305323
 20
162.3695538495038
 40
0.1518352611644848
  0
CIRCLE
  8
_1-0_
  6
CONTINUOUS
 62
    7
 10
252.12304192620357
 20
162.06589569916596
 40
0.1518352611644848
  0
CIRCLE
  8
_1-0_
  6
CONTINUOUS
 62
    7
 10
249.23824001002959
 20
162.3695538495038
 40
0.1518352611644848
  0
CIRCLE
  8
_1-0_
  6
CONTINUOUS
 62
    7
 10
247.41626636402029
 20
164.1915274955131
 40
0.1518352611644848
  0
CIRCLE
  8
_1-0_
  6
CONTINUOUS
 62
    7
 10
248.78275278452281
 20
164.64702709301099
 40
0.1518352611644848
  0
CIRCLE
  8
_1-0_
  6
CONTINUOUS
 62
    7
 10
254.40050279771961
 20
164.95068524334883
 40
0.1518352611644848
  0
CIRCLE
  8
_1-0_
  6
CONTINUOUS
 62
    7
 10
258.19627916490708
 20
164.64702709301099
 40
0.1518352611644848
  0
CIRCLE
  8
_1-0_
  6
CONTINUOUS
 62
    7
 10
267.55972372519005
 20
162.22242613096495
 40
0.1518352611644848
  0
CIRCLE
  8
_1-0_
  6
CONTINUOUS
 62
    7
 10
269.68538026551943
 20
163.43708347629857
 40
0.1518352611644848
  0
CIRCLE
  8
_1-0_
  6
CONTINUOUS
 62
    7
 10
272.11467021220443
 20
162.67792572846284
 40
0.1518352611644848
  0
CIRCLE
  8
_1-0_
  6
CONTINUOUS
 62
    7
 10
279.85807676573057
 20
161.7669389054582
 40
0.1518352611644848
  0
CIRCLE
  8
_1-0_
  6
CONTINUOUS
 62
    7
 10
278.49159034522808
 20
162.52609665329393
 40
0.1518352611644848
  0
CIRCLE
  8
_1-0_
  6
CONTINUOUS
 62
    7
 10
275.30313027871625
 20
163.43708347629857
 40
0.1518352611644848
  0
CIRCLE
  8
_1-0_
  6
CONTINUOUS
 62
    7
 10
274.99947212837839
 20
161.91876798062711
 40
0.1518352611644848
  0
CIRCLE
  8
_1-0_
  6
CONTINUOUS
 62
    7
 10
271.50735391152875
 20
161.61510983028927
 40
0.1518352611644848
  0
CIRCLE
  8
_1-0_
  6
CONTINUOUS
 62
    7
 10
268.62255199535474
 20
161.91876798062711
 40
0.1518352611644848
  0
CIRCLE
  8
_1-0_
  6
CONTINUOUS
 62
    7
 10
266.80057834934547
 20
163.74074162663641
 40
0.1518352611644848
  0
CIRCLE
  8
_1-0_
  6
CONTINUOUS
 62
    7
 10
268.16706476984797
 20
164.1962412241343
 40
0.1518352611644848
  0
CIRCLE
  8
_1-0_
  6
CONTINUOUS
 62
    7
 10
273.78481478304479
 20
164.49989937447214
 40
0.1518352611644848
  0
CIRCLE
  8
_1-0_
  6
CONTINUOUS
 62
    7
 10
277.58061589421453
 20
164.1962412241343
 40
0.1518352611644848
  0
CIRCLE
  8
_1-0_
  6
CONTINUOUS
 62
    7
 10
282.88686391469594
 20
162.67321199984164
 40
0.1518352611644848
  0
CIRCLE
  8
_1-0_
  6
CONTINUOUS
 62
    7
 10
285.01252045502537
 20
163.88786934517526
 40
0.1518352611644848
  0
CIRCLE
  8
_1-0_
  6
CONTINUOUS
 62
    7
 10
287.44181040171031
 20
163.12871159733953
 40
0.1518352611644848
  0
CIRCLE
  8
_1-0_
  6
CONTINUOUS
 62
    7
 10
295.18521695523651
 20
162.2177247743349
 40
0.1518352611644848
  0
CIRCLE
  8
_1-0_
  6
CONTINUOUS
 62
    7
 10
293.81873053473396
 20
162.97688252217063
 40
0.1518352611644848
  0
CIRCLE
  8
_1-0_
  6
CONTINUOUS
 62
    7
 10
290.63027046822214
 20
163.88786934517526
 40
0.1518352611644848
  0
CIRCLE
  8
_1-0_
  6
CONTINUOUS
 62
    7
 10
290.32661231788433
 20
162.3695538495038
 40
0.1518352611644848
  0
CIRCLE
  8
_1-0_
  6
CONTINUOUS
 62
    7
 10
286.83449410103464
 20
162.06589569916596
 40
0.1518352611644848
  0
CIRCLE
  8
_1-0_
  6
CONTINUOUS
 62
    7
 10
283.94969218486068
 20
162.3695538495038
 40
0.1518352611644848
  0
CIRCLE
  8
_1-0_
  6
CONTINUOUS
 62
    7
 10
282.12771853885135
 20
164.1915274955131
 40
0.1518352611644848
  0
CIRCLE
  8
_1-0_
  6
CONTINUOUS
 62
    7
 10
283.49420495935391
 20
164.64702709301099
 40
0.1518352611644848
  0
CIRCLE
  8
_1-0_
  6
CONTINUOUS
 62
    7
 10
289.11195497255068
 20
164.95068524334883
 40
0.1518352611644848
  0
CIRCLE
  8
_1-0_
  6
CONTINUOUS
 62
    7
 10
292.90773133973818
 20
164.64702709301099
 40
0.1518352611644848
  0
CIRCLE
  8
_1-0_
  6
CONTINUOUS
 62
    7
 10
256.28978007548568
 20
160.87001903637037
 40
0.1518352611644848
  0
CIRCLE
  8
_1-0_
  6
CONTINUOUS
 62
    7
 10
258.41543661581505
 20
162.08467638170399
 40
0.1518352611644848
  0
CIRCLE
  8
_1-0_
  6
CONTINUOUS
 62
    7
 10
260.8447265625
 20
161.32551863386826
 40
0.1518352611644848
  0
CIRCLE
  8
_1-0_
  6
CONTINUOUS
 62
    7
 10
268.5881331160262
 20
160.41453181086359
 40
0.1518352611644848
  0
CIRCLE
  8
_1-0_
  6
CONTINUOUS
 62
    7
 10
267.22164669552365
 20
161.17368955869932
 40
0.1518352611644848
  0
CIRCLE
  8
_1-0_
  6
CONTINUOUS
 62
    7
 10
264.03318662901182
 20
162.08467638170399
 40
0.1518352611644848
  0
CIRCLE
  8
_1-0_
  6
CONTINUOUS
 62
    7
 10
263.72952847867401
 20
160.56636088603253
 40
0.1518352611644848
  0
CIRCLE
  8
_1-0_
  6
CONTINUOUS
 62
    7
 10
260.23741026182432
 20
160.26270273569469
 40
0.1518352611644848
  0
CIRCLE
  8
_1-0_
  6
CONTINUOUS
 62
    7
 10
257.35260834565037
 20
160.56636088603253
 40
0.1518352611644848
  0
CIRCLE
  8
_1-0_
  6
CONTINUOUS
 62
    7
 10
255.53063469964107
 20
162.38833453204182
 40
0.1518352611644848
  0
CIRCLE
  8
_1-0_
  6
CONTINUOUS
 62
    7
 10
256.89712112014359
 20
162.84383412953972
 40
0.1518352611644848
  0
CIRCLE
  8
_1-0_
  6
CONTINUOUS
 62
    7
 10
262.51487113334036
 20
163.14749227987755
 40
0.1518352611644848
  0
CIRCLE
  8
_1-0_
  6
CONTINUOUS
 62
    7
 10
266.31067224451016
 20
162.84383412953972
 40
0.1518352611644848
  0
ARC
  8
_1-0_
  6
CONTINUOUS
 62
    7
 10
288.97910453177786
 20
228.4147932722762
 40
3.3352579941620699
 50
315.07438659667974
 51
44.925613403320362
  0
TEXT
  8
_0-0_
 62
    7
 10
147.56756962956609
 20
22.702702702702709
 40
2.5
 41
1
 50
0
  1
図名
  0
TEXT
  8
_0-0_
 62
    7
 10
147.56756962956609
 20
12.972972972972968
 40
2.5
 41
1
 50
0
  1
縮尺
  0
TEXT
  8
_0-0_
 62
    7
 10
382.77784605284
 20
21.243871740392734
 40
2.5
 41
1
 50
0
  1
ＮＯ
  0
TEXT
  8
_0-0_
 62
    7
 10
20.270270012520456
 20
22.702702702702709
 40
2.5
 41
1
 50
0
  1
Ｆ形
  0
TEXT
  8
_0-0_
 62
    7
 10
389.99062615471917
 20
16.178650211643514
 40
2.5
 41
1
 50
0
  1
Ｆ
  0
TEXT
  8
_0-0_
 62
    7
 10
171.37221877639359
 20
12.362518826046511
 40
2.5
 41
1
 50
0
  1
1/5
  0
TEXT
  8
_0-1_
 62
    7
 10
207.90878295898437
 20
123.33247004328548
 40
2.5
 41
1
 50
0
  1
桟瓦
  0
TEXT
  8
_0-1_
 62
    7
 10
207.90878708298143
 20
108.89752362225508
 40
2.5
 41
1
 50
0
  1
流し桟
  0
TEXT
  8
_0-0_
 62
    7
 10
45.397583729511979
 20
13.77361400707349
 40
2.5
 41
1
 50
0
  1
壁際　2
  0
TEXT
  8
_1-3_
 62
    7
 10
273.46554317989865
 20
134.2837854333826
 40
2.5
 41
1
 50
0
  1
200
  0
TEXT
  8
_1-3_
 62
    7
 10
350.57551615947
 20
129.47068497941302
 40
2.5
 41
1
 50
0
  1
２重貼り
  0
TEXT
  8
_1-3_
 62
    7
 10
243.14166919605151
 20
229.83311833562078
 40
2.5
 41
1
 50
0
  1
壁際水切鉄板
  0
TEXT
  8
_1-3_
 62
    7
 10
237.01978116422089
 20
216.00217252164276
 40
2.5
 41
1
 50
0
  1
発泡弾性シール材
  0
TEXT
  8
_1-3_
 62
    7
 10
31.231870393495313
 20
18.589955922719582
 40
2.5
 41
1
 50
0
  1
ＲＣ
  0
TEXT
  8
_1-0_
 62
    7
 10
207.90878708298143
 20
101.92893775733742
 40
2.5
 41
1
 50
0
  1
下葺き材　　　ゴムアス系ルーフィング
  0
TEXT
  8
_1-0_
 62
    7
 10
208.06534225876268
 20
95.224871248812292
 40
2.5
 41
1
 50
0
  1
パーライト系モルタル　　ｔ＝50
  0
TEXT
  8
_1-0_
 62
    7
 10
337.13450251398865
 20
133.30402271167654
 40
2.5
 41
1
 50
0
  1
ゴムアス系ルーフィング
  0
TEXT
  8
_1-3_
 62
    7
 10
336.6043668179899
 20
183.32588814400339
 40
2.5
 41
1
 50
90
  1
150
  0
TEXT
  8
_1-0_
 62
    7
 10
349.61648477090375
 20
198.18446391337628
 40
2.5
 41
1
 50
90
  1
300
  0
TEXT
  8
_1-0_
 62
    7
 10
267.76437707849453
 20
242.9259016707137
 40
2.5
 41
1
 50
0
  1
コーキング
  0
TEXT
  8
_1-0_
 62
    7
 10
352.64142835462417
 20
193.57487034153294
 40
2.5
 41
1
 50
0
  1
下葺き材立上がり寸法
  0
TEXT
  8
_1-3_
 62
    7
 10
400.20088402000636
 20
12.726443264935483
 40
2.5
 41
1
 50
0
  1
22
  0
TEXT
  8
_1-0_
 62
    7
 10
207.90879120697849
 20
116.03203026024072
 40
2.5
 41
1
 50
0
  1
瓦桟　　
  0
TEXT
  8
_1-0_
 62
    7
 10
220.78332849451016
 20
112.8838162808805
 40
2.5
 41
1
 50
0
  1
※　地域により瓦桟木の大きさは、異なります
  0
TEXT
  8
_1-0_
 62
    7
 10
220.00950993718328
 20
115.9604582915435
 40
2.5
 41
1
 50
0
  1
１５×３０　（樹脂桟木）
  0
POINT
  8
_1-3_
 62
    7
 10
255.3405266839105
 20
133.7837837837838
  0
POINT
  8
_1-3_
 62
    7
 10
295.34053493190459
 20
133.7837837837838
  0
POINT
  8
_1-3_
 62
    7
 10
337.1043684675887
 20
170.05946391337628
  0
POINT
  8
_1-3_
 62
    7
 10
337.1043684675887
 20
200.3423123746305
  0
POINT
  8
_1-0_
 62
    7
 10
350.11646167652032
 20
170.05946391337628
  0
POINT
  8
_1-0_
 62
    7
 10
350.11646167652032
 20
230.05945154138516
  0
TEXT
  8
_1-3_
 62
    7
 10
251.93011647254576
 20
208.2504159733777
 40
2.5
 41
1
 50
0
  1
捨谷
  0
ENDSEC
  0
EOF
