  0
SECTION
  2
HEADER
  9
$ACADVER
  1
AC1009
  9
$INSBASE
 10
0
 20
0
 30
0
  9
$EXTMIN
 10
0
 20
0
  9
$EXTMAX
 10
420
 20
297
  9
$LIMMIN
 10
0
 20
0
  9
$LIMMAX
 10
420
 20
297
  9
$LTSCALE
 40
1
  0
ENDSEC
  0
SECTION
  2
TABLES
  0
TABLE
  2
LTYPE
 70
     9
  0
LTYPE
  2
CONTINUOUS
 70
    64
  3
実線
 72
    65
 73
     0
 40
0.0
  0
LTYPE
  2
DASHED1
 70
    64
  3
--  --  --  --  --  --  --  --  
 72
    65
 73
     2
 40
2.5
 49
1.25
 49
-1.25
  0
LTYPE
  2
DASHED2
 70
    64
  3
----    ----    ----    ----    
 72
    65
 73
     2
 40
5.0
 49
2.5
 49
-2.5
  0
LTYPE
  2
DASHED3
 70
    64
  3
------  ------  ------  ------  
 72
    65
 73
     2
 40
5.0
 49
3.75
 49
-1.25
  0
LTYPE
  2
CENTER1
 70
    64
  3
----- - ----- - ----- - ----- - 
 72
    65
 73
     4
 40
10.0
 49
6.25
 49
-1.25
 49
1.25
 49
-1.25
  0
LTYPE
  2
CENTER2
 70
    64
  3
----------  --  ----------  --  
 72
    65
 73
     4
 40
20.0
 49
12.5
 49
-2.5
 49
2.5
 49
-2.5
  0
LTYPE
  2
PHANTOM1
 70
    64
  3
--- - - --- - - --- - - --- - - 
 72
    65
 73
     6
 40
10.0
 49
3.25
 49
-1.25
 49
1.25
 49
-1.25
 49
1.25
 49
-1.25
  0
LTYPE
  2
PHANTOM2
 70
    64
  3
--------  -  -  --------  -  -  
 72
    65
 73
     6
 40
20.0
 49
10.0
 49
-2.5
 49
1.25
 49
-2.5
 49
1.25
 49
-2.5
  0
LTYPE
  2
DOT
 70
    64
  3
-   -   -   -   -   -   -   -   
 72
    65
 73
     2
 40
2.5
 49
0.625
 49
-1.875
  0
LTYPE
  2
DUMMY
 70
    64
  3
ダミー
 72
    65
 73
     0
 40
0.0
  0
LTYPE
  2
RAND1
 70
    64
  3
ランダム線1
 72
    65
 73
     4
 40
10.0
 49
1.0
 49
-2.0
 49
3.0
 49
-4.0
  0
LTYPE
  2
RAND2
 70
    64
  3
ランダム線2
 72
    65
 73
     4
 40
14.0
 49
2.0
 49
-3.0
 49
4.0
 49
-5.0
  0
LTYPE
  2
RAND3
 70
    64
  3
ランダム線3
 72
    65
 73
     4
 40
18.0
 49
3.0
 49
-4.0
 49
5.0
 49
-6.0
  0
LTYPE
  2
RAND4
 70
    64
  3
ランダム線4
 72
    65
 73
     4
 40
22.0
 49
4.0
 49
-5.0
 49
6.0
 49
-7.0
  0
LTYPE
  2
RAND5
 70
    64
  3
ランダム線5
 72
    65
 73
     4
 40
26.0
 49
5.0
 49
-6.0
 49
7.0
 49
-8.0
  0
LTYPE
  2
LONG1
 70
    64
  3
----------  --  ----------  --  
 72
    65
 73
     4
 40
40.0
 49
32.5
 49
-2.5
 49
2.5
 49
-2.5
  0
LTYPE
  2
LONG2
 70
    64
  3
--------  -  -  --------  -  -  
 72
    65
 73
     6
 40
40.0
 49
30.0
 49
-2.5
 49
1.25
 49
-2.5
 49
1.25
 49
-2.5
  0
LTYPE
  2
LONG3
 70
    64
  3
+++++++++++++++..+++++++++++++++
 72
    65
 73
     2
 40
40.0
 49
37.5
 49
-2.5
  0
LTYPE
  2
LONG4
 70
    64
  3
+++++++++++++++..+++++++++++++++
 72
    65
 73
     2
 40
80.0
 49
75.0
 49
-5.0
  0
LTYPE
  2
LONG5
 70
    64
  3
----------  --  ----------  --  
 72
    65
 73
     4
 40
60.0
 49
37.5
 49
-7.5
 49
7.5
 49
-7.5
  0
LTYPE
  2
dashed
 70
   64
  3
-------   -------------   ------
 72
   65
 73
    2
 40
7.5
 49
6
 49
-1.5
  0
LTYPE
  2
dashed_spaced
 70
   64
  3
----        --------        ----
 72
   65
 73
    2
 40
12
 49
6
 49
-6
  0
LTYPE
  2
long_dashed_dotted
 70
   64
  3
------------- --- --------------
 72
   65
 73
    4
 40
15.25
 49
12
 49
-1.5
 49
0.25
 49
-1.5
  0
LTYPE
  2
long_dashed_double-dotted
 70
   64
  3
----------- --- --- ------------
 72
   65
 73
    6
 40
17
 49
12
 49
-1.5
 49
0.25
 49
-1.5
 49
0.25
 49
-1.5
  0
LTYPE
  2
long_dashed_triplicate-dotted
 70
   64
  3
--------- --- --- --- ----------
 72
   65
 73
    8
 40
18.75
 49
12
 49
-1.5
 49
0.25
 49
-1.5
 49
0.25
 49
-1.5
 49
0.25
 49
-1.5
  0
LTYPE
  2
dotted
 70
   64
  3
   -       -       -       -    
 72
   65
 73
    2
 40
1.75
 49
0.25
 49
-1.5
  0
LTYPE
  2
chain
 70
   64
  3
-------------- -- --------------
 72
   65
 73
    4
 40
18.5
 49
12
 49
-1.5
 49
3.5
 49
-1.5
  0
LTYPE
  2
chain_double_dash
 70
   64
  3
------------ -- -- -------------
 72
   65
 73
    6
 40
23.5
 49
12
 49
-1.5
 49
3.5
 49
-1.5
 49
3.5
 49
-1.5
  0
LTYPE
  2
dashed_dotted
 70
   64
  3
-----------     -     ----------
 72
   65
 73
    4
 40
9.25
 49
6
 49
-1.5
 49
0.25
 49
-1.5
  0
LTYPE
  2
double-dashed_dotted
 70
   64
  3
------   -----------   -   -----
 72
   65
 73
    6
 40
16.75
 49
6
 49
-1.5
 49
6
 49
-1.5
 49
0.25
 49
-1.5
  0
LTYPE
  2
dashed_double-dotted
 70
   64
  3
---------    -    -    ---------
 72
   65
 73
    6
 40
11
 49
6
 49
-1.5
 49
0.25
 49
-1.5
 49
0.25
 49
-1.5
  0
LTYPE
  2
double-dashed_double-dotted
 70
   64
  3
-----   ---------   -   -   ----
 72
   65
 73
    8
 40
18.5
 49
6
 49
-1.5
 49
6
 49
-1.5
 49
0.25
 49
-1.5
 49
0.25
 49
-1.5
  0
LTYPE
  2
dashed_triplicate-dotted
 70
   64
  3
-------    -    -    -    ------
 72
   65
 73
    8
 40
12.75
 49
6
 49
-1.5
 49
0.25
 49
-1.5
 49
0.25
 49
-1.5
 49
0.25
 49
-1.5
  0
LTYPE
  2
double-dashed_triplicate-dotted
 70
   64
  3
-----  ---------  -  -  -  -----
 72
   65
 73
   10
 40
20.25
 49
6
 49
-1.5
 49
6
 49
-1.5
 49
0.25
 49
-1.5
 49
0.25
 49
-1.5
 49
0.25
 49
-1.5
  0
LTYPE
  2
undefined
 70
   64
  3
--------------------------------
 72
   65
 73
    0
 40
0
  0
ENDTAB
  0
TABLE
  2
STYLE
  5
3
100
AcDbSymbolTable
 70
     1
  0
STYLE
  5
10
100
AcDbSymbolTableRecord
100
AcDbTextStyleTableRecord
  2
STANDARD
 70
     0
 40
0.0
 41
1.0
 50
0.0
 71
     0
 42
0.2
  3
txt
  4
bigfont.shx
  0
STYLE
  5
26
100
AcDbSymbolTableRecord
100
AcDbTextStyleTableRecord
  2
TATEGAKI
 70
    68
 40
0.0
 41
1.0
 50
0.0
 71
     0
 42
1.0
  3
txt
  4
bigfont.shx
  0
ENDTAB
  0
TABLE
  2
LAYER
 70
    4
  0
LAYER
  2
_0-1_
 70
   64
 62
    7
  6
CONTINUOUS
  0
LAYER
  2
_1-0_
 70
   64
 62
    7
  6
CONTINUOUS
  0
LAYER
  2
_1-1_
 70
   64
 62
    7
  6
CONTINUOUS
  0
LAYER
  2
ADD_LINE
 70
   64
 62
    7
  6
CONTINUOUS
  0
ENDTAB
  0
ENDSEC
  0
SECTION
  2
BLOCKS
  0
ENDSEC
  0
SECTION
  2
ENTITIES
  0
LINE
  8
_0-1_
  6
CONTINUOUS
 62
    7
 10
213.43723875492589
 20
25.680406435124397
 11
213.43723875492589
 21
11.080383165471062
  0
LINE
  8
ADD_LINE
  6
DOT
 62
    7
 10
125.83724028080478
 20
22.837598665349006
 11
205.20020872562901
 21
22.837598665349006
  0
LINE
  8
_0-1_
  6
CONTINUOUS
 62
    7
 10
7.5772534033633576
 20
25.680406435124397
 11
412.72727781742583
 21
25.680406435124397
  0
LINE
  8
_0-1_
  6
CONTINUOUS
 62
    5
 10
7.5772534033633576
 20
293.59038720905016
 11
412.72727781742583
 21
293.59038720905016
  0
LINE
  8
_0-1_
  6
CONTINUOUS
 62
    5
 10
7.5772534033633576
 20
8.8904055195970386
 11
412.72727781742583
 21
8.8904055195970386
  0
LINE
  8
_0-1_
  6
CONTINUOUS
 62
    7
 10
412.72727781742583
 20
25.680406435124397
 11
412.72727781742583
 21
11.080383165471062
  0
LINE
  8
_0-1_
  6
CONTINUOUS
 62
    7
 10
7.5772534033633576
 20
14.834709509007439
 11
7.5772534033633576
 21
11.080383165471062
  0
LINE
  8
_0-1_
  6
CONTINUOUS
 62
    7
 10
7.5772534033633576
 20
25.680406435124397
 11
7.5772534033633576
 21
19.857313974492058
  0
LINE
  8
_0-1_
  6
CONTINUOUS
 62
    7
 10
7.5772534033633576
 20
19.857313974492058
 11
7.5772534033633576
 21
19.500179155461296
  0
LINE
  8
_0-1_
  6
CONTINUOUS
 62
    7
 10
7.5772534033633576
 20
19.857313974492058
 11
7.5772534033633576
 21
14.834709509007439
  0
LINE
  8
_0-1_
  6
CONTINUOUS
 62
    7
 10
7.5772534033633576
 20
11.080383165471062
 11
412.72727781742583
 21
11.080383165471062
  0
LINE
  8
_0-1_
  6
CONTINUOUS
 62
    7
 10
407.77128416508208
 20
21.534768922917365
 11
399.9884777685977
 21
13.751917703740105
  0
LINE
  8
_0-1_
  6
CONTINUOUS
 62
    7
 10
412.72727781742583
 20
11.080383165471062
 11
412.72727781742583
 21
25.680406435124397
  0
LINE
  8
_0-1_
  6
CONTINUOUS
 62
    7
 10
290.08723265141026
 20
25.680406435124397
 11
290.08723265141026
 21
19.020202501408562
  0
LINE
  8
_0-1_
  6
CONTINUOUS
 62
    7
 10
290.08723265141026
 20
19.020202501408562
 11
290.08723265141026
 21
11.080383165471062
  0
LINE
  8
_0-1_
  6
CONTINUOUS
 62
    7
 10
213.43723875492589
 20
18.380405290715203
 11
288.84425169437901
 21
18.380405290715203
  0
LINE
  8
_0-1_
  6
CONTINUOUS
 62
    7
 10
306.87721067875401
 20
25.680406435124397
 11
306.87721067875401
 21
19.857313974492058
  0
LINE
  8
_0-1_
  6
CONTINUOUS
 62
    7
 10
306.87721067875401
 20
19.857313974492058
 11
306.87721067875401
 21
11.080383165471062
  0
LINE
  8
_0-1_
  6
CONTINUOUS
 62
    7
 10
213.43723875492589
 20
18.380405290715203
 11
290.08723265141026
 21
18.380405290715203
  0
LINE
  8
_0-1_
  6
CONTINUOUS
 62
    7
 10
394.4772472998477
 20
25.680406435124397
 11
394.4772472998477
 21
11.080383165471062
  0
LINE
  8
ADD_LINE
  6
DOT
 62
    7
 10
18.655595841107498
 20
22.837598665349006
 11
48.897417130169998
 21
22.837598665349006
  0
LINE
  8
ADD_LINE
  6
DOT
 62
    7
 10
48.897417130169998
 20
22.837598665349006
 11
127.16582304447665
 21
22.837598665349006
  0
LINE
  8
ADD_LINE
  6
DOT
 62
    7
 10
205.20020872562901
 20
22.837598665349006
 11
328.84751707523839
 21
22.837598665349006
  0
LINE
  8
_0-1_
  6
CONTINUOUS
 62
    7
 10
263.07722288578526
 20
18.380405290715203
 11
263.07722288578526
 21
11.080383165471062
  0
LINE
  8
ADD_LINE
  6
DOT
 62
    7
 10
214.60806089848057
 20
15.584670408360466
 11
273.05274778812901
 21
15.584670408360466
  0
LINE
  8
ADD_LINE
  6
DOT
 62
    7
 10
328.84751707523839
 20
22.837598665349006
 11
403.85075193851958
 21
22.837598665349006
  0
TEXT
  8
_0-1_
 62
    7
 10
9.3539288660861359
 20
22.597051485173225
 40
2
 41
1
 50
0
  1
特記
  0
TEXT
  8
_0-1_
 62
    7
 10
213.43606382816807
 20
22.583328111760139
 40
2
 41
1
 50
0
  1
図面名
  0
TEXT
  8
_0-1_
 62
    7
 10
213.76429563969151
 20
15.247170789830193
 40
2
 41
1
 50
0
  1
SCALE
  0
TEXT
  8
_0-1_
 62
    7
 10
263.93104368656651
 20
15.16264854251574
 40
2
 41
1
 50
0
  1
DATE
  0
TEXT
  8
_0-1_
 62
    7
 10
291.17832762211339
 20
22.653281076542854
 40
2
 41
1
 50
0
  1
担当
  0
TEXT
  8
_0-1_
 62
    7
 10
395.47913938969145
 20
22.372781618229865
 40
2.5
 41
1
 50
0
  1
NO
  0
LINE
  8
_0-1_
  6
CONTINUOUS
 62
    4
 10
18.11883360355867
 20
22.111630304448127
 11
213.43723875492589
 21
22.111630304448127
  0
LINE
  8
_0-1_
  6
CONTINUOUS
 62
    4
 10
18.11883360355867
 20
18.461629732243523
 11
213.43723875492589
 21
18.461629732243523
  0
LINE
  8
_0-1_
  6
CONTINUOUS
 62
    4
 10
18.11883360355867
 20
14.811652048222527
 11
213.43723875492589
 21
14.811652048222527
  0
LINE
  8
ADD_LINE
  6
DOT
 62
    4
 10
311.249670296575
 20
19.812035451072745
 11
345.00828120240271
 21
19.812035451072745
  0
TEXT
  8
_0-1_
 62
    7
 10
310.64143599415735
 20
19.578707430822249
 40
3
 41
1
 50
0
  1
株式会社
  0
TEXT
  8
_0-1_
 62
    3
 10
328.38745303781229
 20
19.490272438212457
 40
5
 41
1
 50
0
  1
神　清
  0
TEXT
  8
_0-1_
 62
    7
 10
223.82205475621606
 20
12.751538617002723
 40
3
 41
1
 50
0
  1
1/5
  0
LINE
  8
ADD_LINE
  6
DOT
 62
    4
 10
-1.4803103548929641
 20
169.32435627486902
 11
30.610872613503346
 21
169.32435627486902
  0
LINE
  8
_1-1_
  6
CONTINUOUS
 62
    7
 10
1.574983256187835
 20
170.24991127984936
 11
1.5749908770567629
 21
170.24992044932588
  0
TEXT
  8
_1-1_
 62
    7
 10
397.98668885191353
 20
16.769550748752067
 40
3
 41
1
 50
0
  1
14
  0
TEXT
  8
_0-1_
 62
    7
 10
223.13368456897959
 20
20.065471856390189
 40
3
 41
1
 50
0
  1
Ｎｏｖｕｍ　壁際　1
  0
LINE
  8
_1-0_
  6
CONTINUOUS
 62
    7
 10
167.59857662617713
 20
149.70217222306221
 11
167.59857662617713
 21
161.70217469746044
  0
LINE
  8
_1-0_
  6
CONTINUOUS
 62
    7
 10
167.59857662617713
 20
161.70217469746044
 11
179.59857910057536
 21
161.70217469746044
  0
LINE
  8
_1-0_
  6
CONTINUOUS
 62
    7
 10
179.59857910057536
 20
161.70217469746044
 11
179.59857910057536
 21
149.70217222306221
  0
LINE
  8
_1-0_
  6
CONTINUOUS
 62
    7
 10
179.59857910057536
 20
149.70217222306221
 11
167.59857662617713
 21
149.70217222306221
  0
LINE
  8
_1-0_
  6
CONTINUOUS
 62
    7
 10
179.59857910057536
 20
161.70217469746044
 11
167.59857662617713
 21
149.70217222306221
  0
LINE
  8
_1-0_
  6
CONTINUOUS
 62
    7
 10
228.19856870810284
 20
149.70217222306221
 11
228.19856870810284
 21
161.70217469746044
  0
LINE
  8
_1-0_
  6
CONTINUOUS
 62
    7
 10
228.19856870810284
 20
161.70217469746044
 11
240.19855881050989
 21
161.70217469746044
  0
LINE
  8
_1-0_
  6
CONTINUOUS
 62
    7
 10
240.19855881050989
 20
161.70217469746044
 11
240.19855881050989
 21
149.70217222306221
  0
LINE
  8
_1-0_
  6
CONTINUOUS
 62
    7
 10
240.19855881050989
 20
149.70217222306221
 11
228.19856870810284
 21
149.70217222306221
  0
LINE
  8
_1-0_
  6
CONTINUOUS
 62
    7
 10
240.19855881050989
 20
161.70217469746044
 11
228.19856870810284
 21
149.70217222306221
  0
LINE
  8
_1-0_
  6
CONTINUOUS
 62
    7
 10
288.79856079002843
 20
149.70217222306221
 11
288.79856079002843
 21
161.70217469746044
  0
LINE
  8
_1-0_
  6
CONTINUOUS
 62
    7
 10
288.79856079002843
 20
161.70217469746044
 11
300.79855089243563
 21
161.70217469746044
  0
LINE
  8
_1-0_
  6
CONTINUOUS
 62
    7
 10
300.79855089243563
 20
161.70217469746044
 11
300.79855089243563
 21
149.70217222306221
  0
LINE
  8
_1-0_
  6
CONTINUOUS
 62
    7
 10
300.79855089243563
 20
149.70217222306221
 11
288.79856079002843
 21
149.70217222306221
  0
LINE
  8
_1-0_
  6
CONTINUOUS
 62
    7
 10
300.79855089243563
 20
161.70217469746044
 11
288.79856079002843
 21
149.70217222306221
  0
LINE
  8
_1-0_
  6
CONTINUOUS
 62
    7
 10
349.39855287195417
 20
149.70217222306221
 11
349.39855287195417
 21
161.70217469746044
  0
LINE
  8
_1-0_
  6
CONTINUOUS
 62
    7
 10
349.39855287195417
 20
161.70217469746044
 11
361.39854297436125
 21
161.70217469746044
  0
LINE
  8
_1-0_
  6
CONTINUOUS
 62
    7
 10
361.39854297436125
 20
161.70217469746044
 11
361.39854297436125
 21
149.70217222306221
  0
LINE
  8
_1-0_
  6
CONTINUOUS
 62
    7
 10
361.39854297436125
 20
149.70217222306221
 11
349.39855287195417
 21
149.70217222306221
  0
LINE
  8
_1-0_
  6
CONTINUOUS
 62
    7
 10
361.39854297436125
 20
161.70217469746044
 11
349.39855287195417
 21
149.70217222306221
  0
LINE
  8
_1-0_
  6
CONTINUOUS
 62
    7
 10
127.38904870836674
 20
165.90219350288697
 11
127.38904870836674
 21
165.30218904897015
  0
LINE
  8
_1-0_
  6
CONTINUOUS
 62
    7
 10
127.38904870836674
 20
165.30218904897015
 11
127.38904870836674
 21
165.90219350288697
  0
LINE
  8
_1-0_
  6
CONTINUOUS
 62
    7
 10
127.38904870836674
 20
165.90219350288697
 11
132.18904722372781
 21
165.90219350288697
  0
LINE
  8
_1-0_
  6
CONTINUOUS
 62
    7
 10
132.18904722372781
 20
165.90219350288697
 11
132.18904722372781
 21
165.30218904897015
  0
LINE
  8
_1-0_
  6
CONTINUOUS
 62
    7
 10
132.18904722372781
 20
165.30218904897015
 11
127.38904870836674
 21
165.30218904897015
  0
LINE
  8
_1-0_
  6
CONTINUOUS
 62
    7
 10
127.38904870836674
 20
165.90219350288697
 11
132.18904722372781
 21
165.30218904897015
  0
LINE
  8
_1-0_
  6
CONTINUOUS
 62
    7
 10
174.19858850328865
 20
165.30218904897015
 11
174.19858850328865
 21
165.90219350288697
  0
LINE
  8
_1-0_
  6
CONTINUOUS
 62
    7
 10
174.19858850328865
 20
165.90219350288697
 11
178.99858701864969
 21
165.90219350288697
  0
LINE
  8
_1-0_
  6
CONTINUOUS
 62
    7
 10
178.99858701864969
 20
165.90219350288697
 11
178.99858701864969
 21
165.30218904897015
  0
LINE
  8
_1-0_
  6
CONTINUOUS
 62
    7
 10
178.99858701864969
 20
165.30218904897015
 11
174.19858850328865
 21
165.30218904897015
  0
LINE
  8
_1-0_
  6
CONTINUOUS
 62
    7
 10
174.19858850328865
 20
165.90219350288697
 11
178.99858701864969
 21
165.30218904897015
  0
LINE
  8
_1-0_
  6
CONTINUOUS
 62
    7
 10
234.7985805852143
 20
165.30218904897015
 11
234.7985805852143
 21
165.90219350288697
  0
LINE
  8
_1-0_
  6
CONTINUOUS
 62
    7
 10
234.7985805852143
 20
165.90219350288697
 11
239.59856672858422
 21
165.90219350288697
  0
LINE
  8
_1-0_
  6
CONTINUOUS
 62
    7
 10
239.59856672858422
 20
165.90219350288697
 11
239.59856672858422
 21
165.30218904897015
  0
LINE
  8
_1-0_
  6
CONTINUOUS
 62
    7
 10
239.59856672858422
 20
165.30218904897015
 11
234.7985805852143
 21
165.30218904897015
  0
LINE
  8
_1-0_
  6
CONTINUOUS
 62
    7
 10
234.7985805852143
 20
165.90219350288697
 11
239.59856672858422
 21
165.30218904897015
  0
LINE
  8
_1-0_
  6
CONTINUOUS
 62
    7
 10
295.39857266714
 20
165.30218904897015
 11
295.39857266714
 21
165.90219350288697
  0
LINE
  8
_1-0_
  6
CONTINUOUS
 62
    7
 10
295.39857266714
 20
165.90219350288697
 11
300.19855881050989
 21
165.90219350288697
  0
LINE
  8
_1-0_
  6
CONTINUOUS
 62
    7
 10
300.19855881050989
 20
165.90219350288697
 11
300.19855881050989
 21
165.30218904897015
  0
LINE
  8
_1-0_
  6
CONTINUOUS
 62
    7
 10
300.19855881050989
 20
165.30218904897015
 11
295.39857266714
 21
165.30218904897015
  0
LINE
  8
_1-0_
  6
CONTINUOUS
 62
    7
 10
295.39857266714
 20
165.90219350288697
 11
300.19855881050989
 21
165.30218904897015
  0
LINE
  8
_1-0_
  6
CONTINUOUS
 62
    7
 10
355.99856474906562
 20
165.30218904897015
 11
355.99856474906562
 21
165.90219350288697
  0
LINE
  8
_1-0_
  6
CONTINUOUS
 62
    7
 10
355.99856474906562
 20
165.90219350288697
 11
360.79855089243563
 21
165.90219350288697
  0
LINE
  8
_1-0_
  6
CONTINUOUS
 62
    7
 10
360.79855089243563
 20
165.90219350288697
 11
360.79855089243563
 21
165.30218904897015
  0
LINE
  8
_1-0_
  6
CONTINUOUS
 62
    7
 10
360.79855089243563
 20
165.30218904897015
 11
355.99856474906562
 21
165.30218904897015
  0
LINE
  8
_1-0_
  6
CONTINUOUS
 62
    7
 10
355.99856474906562
 20
165.90219350288697
 11
360.79855089243563
 21
165.30218904897015
  0
LINE
  8
_1-0_
  6
CONTINUOUS
 62
    3
 10
291.59856507898542
 20
168.90219102848874
 11
349.59853373660792
 21
168.90219102848874
  0
LINE
  8
_1-0_
  6
CONTINUOUS
 62
    3
 10
230.39855617115182
 20
168.90219102848874
 11
288.39854957275656
 21
168.90219102848874
  0
LINE
  8
_1-0_
  6
CONTINUOUS
 62
    7
 10
232.41912501880805
 20
171.81349374966695
 11
264.04631403643896
 21
84.918535665972897
  0
LINE
  8
_1-0_
  6
CONTINUOUS
 62
    7
 10
264.04631403643896
 20
84.918535665972897
 11
269.97155751722448
 21
84.918535665972897
  0
LINE
  8
_1-0_
  6
CONTINUOUS
 62
    7
 10
106.99858454425146
 20
161.70217469746044
 11
372.13371967938656
 21
161.70217469746044
  0
LINE
  8
_1-0_
  6
CONTINUOUS
 62
    3
 10
352.79857398681906
 20
168.90219102848874
 11
372.13371967938656
 21
168.90219102848874
  0
LINE
  8
_1-0_
  6
CONTINUOUS
 62
    7
 10
106.79859130760661
 20
148.50217568721973
 11
372.13371967938656
 21
148.50217568721973
  0
LINE
  8
_1-0_
  6
CONTINUOUS
 62
    7
 10
118.99858701864969
 20
149.70217222306221
 11
106.79859130760661
 21
149.70217222306221
  0
LINE
  8
_1-0_
  6
CONTINUOUS
 62
    7
 10
106.79859130760661
 20
149.70217222306221
 11
372.13371967938656
 21
149.70217222306221
  0
LINE
  8
_1-0_
  6
CONTINUOUS
 62
    7
 10
106.79859130760661
 20
161.70217469746044
 11
118.99858701864969
 21
161.70217469746044
  0
LINE
  8
_1-0_
  6
DASHED1
 62
    3
 10
107.30312110595965
 20
164.70218459505335
 11
372.13371967938656
 21
164.70218459505335
  0
LINE
  8
_1-0_
  6
CONTINUOUS
 62
    7
 10
127.38904870836674
 20
168.90219102848874
 11
127.38904870836674
 21
165.30218904897015
  0
LINE
  8
_1-0_
  6
CONTINUOUS
 62
    7
 10
127.38904870836674
 20
165.90219350288697
 11
372.13371967938656
 21
165.90219350288697
  0
LINE
  8
_1-0_
  6
CONTINUOUS
 62
    7
 10
127.38904870836674
 20
165.30218904897015
 11
372.13371967938656
 21
165.30218904897015
  0
LINE
  8
_1-0_
  6
CONTINUOUS
 62
    2
 10
125.99858536905086
 20
165.05010972966062
 11
107.55703147995669
 21
165.05010972966062
  0
LINE
  8
_1-0_
  6
CONTINUOUS
 62
    2
 10
107.55703147995669
 20
165.05010972966062
 11
107.55703147995669
 21
195.05010972966062
  0
LINE
  8
_1-0_
  6
CONTINUOUS
 62
    2
 10
107.55703147995669
 20
195.05010972966062
 11
108.08588461287476
 21
191.84536812281939
  0
LINE
  8
_1-0_
  6
CONTINUOUS
 62
    2
 10
125.99858536905086
 20
168.29772028577338
 11
123.27193461551411
 21
168.29772028577338
  0
LINE
  8
_1-0_
  6
CONTINUOUS
 62
    2
 10
125.99858536905086
 20
168.29772028577338
 11
125.99858536905086
 21
165.05010972966062
  0
LINE
  8
_1-0_
  6
DASHED1
 62
    3
 10
107.30312110595965
 20
164.70218459505335
 11
107.12750069184435
 21
164.70218459505335
  0
LINE
  8
_1-0_
  6
CONTINUOUS
 62
    7
 10
106.79859130760661
 20
164.10218014113656
 11
372.13371967938656
 21
164.10218014113656
  0
LINE
  8
_1-0_
  6
DASHED1
 62
    3
 10
107.12750069184435
 20
164.70218459505335
 11
107.12750069184435
 21
224.70217222306223
  0
LINE
  8
_1-0_
  6
CONTINUOUS
 62
    7
 10
106.79859130760661
 20
100.04812608708249
 11
106.79859130760661
 21
236.37499739198114
  0
LINE
  8
_1-0_
  6
CONTINUOUS
 62
    7
 10
106.79859130760661
 20
149.70217222306221
 11
106.79859130760661
 21
161.70217469746044
  0
LINE
  8
_1-0_
  6
CONTINUOUS
 62
    7
 10
106.79859130760661
 20
161.70217469746044
 11
118.79859378200484
 21
161.70217469746044
  0
LINE
  8
_1-0_
  6
CONTINUOUS
 62
    7
 10
118.79859378200484
 20
161.70217469746044
 11
118.79859378200484
 21
149.70217222306221
  0
LINE
  8
_1-0_
  6
CONTINUOUS
 62
    7
 10
118.79859378200484
 20
149.70217222306221
 11
106.79859130760661
 21
149.70217222306221
  0
LINE
  8
_1-0_
  6
CONTINUOUS
 62
    7
 10
118.79859378200484
 20
161.70217469746044
 11
106.79859130760661
 21
149.70217222306221
  0
LINE
  8
_1-0_
  6
CONTINUOUS
 62
    7
 10
61.59317913884604
 20
165.05010972966062
 11
61.59317913884604
 21
195.05010972966062
  0
LINE
  8
_1-0_
  6
CONTINUOUS
 62
    7
 10
98.890476436143331
 20
165.05010972966062
 11
61.59317913884604
 21
165.05010972966062
  0
LINE
  8
_1-0_
  6
CONTINUOUS
 62
    7
 10
98.890476436143331
 20
195.05010972966062
 11
61.59317913884604
 21
195.05010972966062
  0
LINE
  8
_1-0_
  6
CONTINUOUS
 62
    7
 10
54.040121854877498
 20
165.05010972966062
 11
54.040121854877498
 21
224.70217222306223
  0
LINE
  8
_1-0_
  6
CONTINUOUS
 62
    7
 10
98.890476436143331
 20
165.05010972966062
 11
54.040121854877498
 21
165.05010972966062
  0
LINE
  8
_1-0_
  6
CONTINUOUS
 62
    7
 10
98.890476436143331
 20
224.70217222306223
 11
54.040121854877498
 21
224.70217222306223
  0
LINE
  8
_1-0_
  6
CONTINUOUS
 62
    7
 10
106.79859130760661
 20
134.50304502579658
 11
146.79858718360958
 21
134.50304502579658
  0
LINE
  8
_1-0_
  6
CONTINUOUS
 62
    7
 10
106.79859130760661
 20
145.32473906480629
 11
106.79859130760661
 21
134.50304502579658
  0
LINE
  8
_1-0_
  6
CONTINUOUS
 62
    7
 10
146.79858718360958
 20
145.32473906480629
 11
146.79858718360958
 21
134.50304502579658
  0
LINE
  8
_1-0_
  6
CONTINUOUS
 62
    7
 10
146.79858718360958
 20
117.9857316614068
 11
142.93696707961885
 21
115.75622462751745
  0
LINE
  8
_1-0_
  6
CONTINUOUS
 62
    7
 10
146.79858718360958
 20
117.9857316614068
 11
142.93696707961885
 21
120.21523869529616
  0
LINE
  8
_1-0_
  6
CONTINUOUS
 62
    7
 10
101.58410634534943
 20
117.9857316614068
 11
146.79858718360958
 21
117.9857316614068
  0
LINE
  8
_1-0_
  6
CONTINUOUS
 62
    7
 10
146.79858718360958
 20
134.50304502579658
 11
146.79858718360958
 21
117.9857316614068
  0
LINE
  8
_1-0_
  6
CONTINUOUS
 62
    7
 10
91.584104283350911
 20
224.70217222306223
 11
89.899725736713435
 21
221.78473299428265
  0
LINE
  8
_1-0_
  6
CONTINUOUS
 62
    7
 10
91.584104283350911
 20
224.70217222306223
 11
93.268482829988358
 21
221.78473299428265
  0
LINE
  8
_1-0_
  6
CONTINUOUS
 62
    7
 10
91.584104283350911
 20
127.98572753740976
 11
91.584104283350911
 21
224.70217222306223
  0
LINE
  8
_1-0_
  6
CONTINUOUS
 62
    7
 10
89.971557517224426
 20
133.29136933032572
 11
86.327604039210286
 21
135.95545492470919
  0
LINE
  8
_1-0_
  6
CONTINUOUS
 62
    7
 10
124.96926045087096
 20
164.86976321493299
 11
135.22832582117292
 21
193.05631387081348
  0
LINE
  8
_1-0_
  6
CONTINUOUS
 62
    7
 10
123.31849041814291
 20
240.57875253872945
 11
125.6472331929001
 21
240.57875253872945
  0
LINE
  8
_1-0_
  6
CONTINUOUS
 62
    7
 10
134.68953797937604
 20
226.10767990359432
 11
138.62020616587307
 21
226.10767990359432
  0
LINE
  8
_1-0_
  6
CONTINUOUS
 62
    7
 10
135.22832582117292
 20
193.05631387081348
 11
138.62020616587307
 21
193.05631387081348
  0
LINE
  8
_1-0_
  6
CONTINUOUS
 62
    7
 10
74.566152111819008
 20
133.29136933032572
 11
89.971557517224426
 21
133.29136933032572
  0
ARC
  8
_1-0_
  6
CONTINUOUS
 62
    7
 10
101.58410634534943
 20
127.98572753740976
 40
9.9999997422501856
 50
180
 51
270
  0
POINT
  8
_1-0_
 62
    7
 10
61.59317913884604
 20
165.05010972966062
  0
POINT
  8
_1-0_
 62
    7
 10
61.59317913884604
 20
195.05010972966062
  0
POINT
  8
_1-0_
 62
    7
 10
54.040121854877498
 20
165.05010972966062
  0
POINT
  8
_1-0_
 62
    7
 10
54.040121854877498
 20
224.70217222306223
  0
POINT
  8
_1-0_
 62
    7
 10
106.79859130760661
 20
134.50304502579658
  0
POINT
  8
_1-0_
 62
    7
 10
146.79858718360958
 20
134.50304502579658
  0
LINE
  8
_1-0_
  6
CONTINUOUS
 62
    7
 10
127.38904870836674
 20
168.90219102848874
 11
371.91786322392943
 21
168.90219102848874
  0
LINE
  8
_1-0_
  6
CONTINUOUS
 62
    7
 10
251.307344903732
 20
119.91853360397438
 11
269.97155751722448
 21
119.91853360397438
  0
LINE
  8
_1-0_
  6
CONTINUOUS
 62
    7
 10
253.85513378147698
 20
112.9185352535732
 11
269.97155751722448
 21
112.9185352535732
  0
LINE
  8
_1-0_
  6
CONTINUOUS
 62
    7
 10
256.40294740320417
 20
105.91853690317201
 11
269.97155751722448
 21
105.91853690317201
  0
LINE
  8
_1-0_
  6
CONTINUOUS
 62
    7
 10
258.95073628094912
 20
98.918538552770826
 11
269.97155751722448
 21
98.918538552770826
  0
LINE
  8
_1-0_
  6
CONTINUOUS
 62
    7
 10
261.49852515869406
 20
91.918534016374082
 11
269.97155751722448
 21
91.918534016374082
  0
LINE
  8
_1-0_
  6
CONTINUOUS
 62
    7
 10
116.99859279224555
 20
177.50219713200437
 11
134.68953797937604
 21
226.10767990359432
  0
LINE
  8
_1-0_
  6
CONTINUOUS
 62
    7
 10
113.48507103073794
 20
213.56163960059601
 11
123.31849041814291
 21
240.57875253872945
  0
TEXT
  8
_1-0_
 62
    7
 10
26.935108497251065
 20
186.9494371882227
 40
2.5
 41
1
 50
0
  1
下葺き材立上がり寸法
  0
LINE
  8
_1-1_
  6
CONTINUOUS
 62
    7
 10
134.01347305009259
 20
178.10462576728614
 11
141.01347758648933
 21
172.50461718937228
  0
LINE
  8
ADD_LINE
  6
DOT
 62
    4
 10
108.95795786388584
 20
169.10462081848968
 11
141.04914603692217
 21
169.10462081848968
  0
LINE
  8
_1-1_
  6
CONTINUOUS
 62
    7
 10
149.01346686409701
 20
169.10462081848968
 11
141.01347758648933
 21
169.10462081848968
  0
LINE
  8
_1-1_
  6
CONTINUOUS
 62
    7
 10
141.01347758648933
 20
172.50461718937228
 11
149.01346686409701
 21
172.50461718937228
  0
LINE
  8
_1-1_
  6
CONTINUOUS
 62
    7
 10
112.01347469969136
 20
177.50462131336931
 11
112.01347469969136
 21
175.10461586969322
  0
LINE
  8
_1-1_
  6
CONTINUOUS
 62
    7
 10
168.01346768889641
 20
173.65137704737481
 11
168.01346768889641
 21
172.77995585200952
  0
LINE
  8
_1-1_
  6
CONTINUOUS
 62
    7
 10
171.01347758648933
 20
175.10461586969322
 11
171.01347758648933
 21
174.4897650264183
  0
LINE
  8
_1-1_
  6
CONTINUOUS
 62
    7
 10
173.01347181289347
 20
177.10462246808851
 11
173.01347181289347
 21
175.77055066435116
  0
LINE
  8
_1-1_
  6
CONTINUOUS
 62
    7
 10
165.01347016329464
 20
174.27065706347489
 11
165.01347016329464
 21
171.50462626216577
  0
LINE
  8
_1-1_
  6
CONTINUOUS
 62
    7
 10
168.01346768889641
 20
175.16684698508595
 11
168.01346768889641
 21
175.79924131178572
  0
LINE
  8
_1-1_
  6
CONTINUOUS
 62
    7
 10
171.41347643177016
 20
176.42130502589043
 11
171.41347643177016
 21
177.06993140495504
  0
LINE
  8
_1-1_
  6
CONTINUOUS
 62
    7
 10
169.41346983337488
 20
175.65175480550403
 11
169.41346983337488
 21
176.29032275577853
  0
LINE
  8
_1-1_
  6
CONTINUOUS
 62
    7
 10
187.01346851369581
 20
178.10462576728614
 11
194.01346686409701
 21
172.50461718937228
  0
LINE
  8
_1-1_
  6
CONTINUOUS
 62
    7
 10
202.01346851369584
 20
169.10462081848968
 11
194.01346686409701
 21
169.10462081848968
  0
LINE
  8
_1-1_
  6
CONTINUOUS
 62
    7
 10
194.01346686409701
 20
172.50461718937228
 11
202.01346851369584
 21
172.50461718937228
  0
LINE
  8
_1-1_
  6
CONTINUOUS
 62
    7
 10
165.01347016329464
 20
177.50462131336931
 11
165.01347016329464
 21
175.10461586969322
  0
LINE
  8
_1-1_
  6
CONTINUOUS
 62
    7
 10
221.01346933849524
 20
173.65137704737481
 11
221.01346933849524
 21
172.77995585200952
  0
LINE
  8
_1-1_
  6
CONTINUOUS
 62
    7
 10
224.01346686409701
 20
175.10461586969322
 11
224.01346686409701
 21
174.4897650264183
  0
LINE
  8
_1-1_
  6
CONTINUOUS
 62
    7
 10
226.0134734624923
 20
177.10462246808851
 11
226.0134734624923
 21
175.77055066435116
  0
LINE
  8
_1-1_
  6
CONTINUOUS
 62
    7
 10
218.01347181289347
 20
174.27065706347489
 11
218.01347181289347
 21
171.50462626216577
  0
LINE
  8
_1-1_
  6
CONTINUOUS
 62
    7
 10
221.01346933849524
 20
175.16684698508595
 11
221.01346933849524
 21
175.79924131178572
  0
LINE
  8
_1-1_
  6
CONTINUOUS
 62
    7
 10
224.41347808136899
 20
176.42130502589043
 11
224.41347808136899
 21
177.06993140495504
  0
LINE
  8
_1-1_
  6
CONTINUOUS
 62
    7
 10
222.4134714829737
 20
175.65175480550403
 11
222.4134714829737
 21
176.29032275577853
  0
LINE
  8
_1-1_
  6
CONTINUOUS
 62
    7
 10
240.01347016329464
 20
178.10462576728614
 11
247.01346851369584
 21
172.50461718937228
  0
LINE
  8
_1-1_
  6
CONTINUOUS
 62
    7
 10
255.01347016329467
 20
169.10462081848968
 11
247.01346851369584
 21
169.10462081848968
  0
LINE
  8
_1-1_
  6
CONTINUOUS
 62
    7
 10
247.01346851369584
 20
172.50461718937228
 11
255.01347016329467
 21
172.50461718937228
  0
LINE
  8
_1-1_
  6
CONTINUOUS
 62
    7
 10
218.01347181289347
 20
177.50462131336931
 11
218.01347181289347
 21
175.10461586969322
  0
LINE
  8
_1-1_
  6
CONTINUOUS
 62
    7
 10
274.01348336008516
 20
173.65137704737481
 11
274.01348336008516
 21
172.77995585200952
  0
LINE
  8
_1-1_
  6
CONTINUOUS
 62
    7
 10
277.01346851369584
 20
175.10461586969322
 11
277.01346851369584
 21
174.4897650264183
  0
LINE
  8
_1-1_
  6
CONTINUOUS
 62
    7
 10
279.0134751120911
 20
177.10462246808851
 11
279.0134751120911
 21
175.77055066435116
  0
LINE
  8
_1-1_
  6
CONTINUOUS
 62
    7
 10
271.0134734624923
 20
174.27065706347489
 11
271.0134734624923
 21
171.50462626216577
  0
LINE
  8
_1-1_
  6
CONTINUOUS
 62
    7
 10
274.01348336008516
 20
175.16684698508595
 11
274.01348336008516
 21
175.79924131178572
  0
LINE
  8
_1-1_
  6
CONTINUOUS
 62
    7
 10
277.41347973096777
 20
176.42130502589043
 11
277.41347973096777
 21
177.06993140495504
  0
LINE
  8
_1-1_
  6
CONTINUOUS
 62
    7
 10
275.41347313257256
 20
175.65175480550403
 11
275.41347313257256
 21
176.29032275577853
  0
LINE
  8
_1-1_
  6
CONTINUOUS
 62
    7
 10
293.0134718128935
 20
178.10462576728614
 11
300.01347016329464
 21
172.50461718937228
  0
LINE
  8
_1-1_
  6
CONTINUOUS
 62
    7
 10
308.0134718128935
 20
169.10462081848968
 11
300.01347016329464
 21
169.10462081848968
  0
LINE
  8
_1-1_
  6
CONTINUOUS
 62
    7
 10
300.01347016329464
 20
172.50461718937228
 11
308.0134718128935
 21
172.50461718937228
  0
LINE
  8
_1-1_
  6
CONTINUOUS
 62
    7
 10
271.0134734624923
 20
177.50462131336931
 11
271.0134734624923
 21
175.10461586969322
  0
LINE
  8
_1-1_
  6
CONTINUOUS
 62
    7
 10
327.01348500968402
 20
173.65137704737481
 11
327.01348500968402
 21
172.77995585200952
  0
LINE
  8
_1-1_
  6
CONTINUOUS
 62
    7
 10
330.01347016329464
 20
175.10461586969322
 11
330.01347016329464
 21
174.4897650264183
  0
LINE
  8
_1-1_
  6
CONTINUOUS
 62
    7
 10
332.01347676168996
 20
177.10462246808851
 11
332.01347676168996
 21
175.77055066435116
  0
LINE
  8
_1-1_
  6
CONTINUOUS
 62
    7
 10
324.0134751120911
 20
174.27065706347489
 11
324.0134751120911
 21
171.50462626216577
  0
LINE
  8
_1-1_
  6
CONTINUOUS
 62
    7
 10
327.01348500968402
 20
175.16684698508595
 11
327.01348500968402
 21
175.79924131178572
  0
LINE
  8
_1-1_
  6
CONTINUOUS
 62
    7
 10
330.41348138056662
 20
176.42130502589043
 11
330.41348138056662
 21
177.06993140495504
  0
LINE
  8
_1-1_
  6
CONTINUOUS
 62
    7
 10
328.41347478217131
 20
175.65175480550403
 11
328.41347478217131
 21
176.29032275577853
  0
LINE
  8
_1-1_
  6
CONTINUOUS
 62
    7
 10
346.01347346249224
 20
178.10462576728614
 11
353.0134718128935
 21
172.50461718937228
  0
LINE
  8
_1-1_
  6
CONTINUOUS
 62
    7
 10
361.01347346249224
 20
169.10462081848968
 11
353.0134718128935
 21
169.10462081848968
  0
LINE
  8
_1-1_
  6
CONTINUOUS
 62
    7
 10
353.0134718128935
 20
172.50461718937228
 11
361.01347346249224
 21
172.50461718937228
  0
LINE
  8
_1-1_
  6
CONTINUOUS
 62
    7
 10
324.0134751120911
 20
177.50462131336931
 11
324.0134751120911
 21
175.10461586969322
  0
LINE
  8
_1-1_
  6
CONTINUOUS
 62
    7
 10
173.01347181289347
 20
177.10462246808851
 11
173.01347181289347
 21
177.46347207086509
  0
LINE
  8
_1-1_
  6
CONTINUOUS
 62
    7
 10
226.0134734624923
 20
177.10462246808851
 11
226.0134734624923
 21
177.46347207086509
  0
LINE
  8
_1-1_
  6
CONTINUOUS
 62
    7
 10
279.0134751120911
 20
177.10462246808851
 11
279.0134751120911
 21
177.46347207086509
  0
LINE
  8
_1-1_
  6
CONTINUOUS
 62
    7
 10
332.01347676168996
 20
177.10462246808851
 11
332.01347676168996
 21
177.46347207086509
  0
LINE
  8
_1-1_
  6
CONTINUOUS
 62
    7
 10
112.01325200385102
 20
170.0301694750564
 11
112.0132581898466
 21
170.03018184704754
  0
ARC
  8
_1-1_
  6
CONTINUOUS
 62
    7
 10
149.93895366070808
 20
217.46809507155135
 40
48.372338784707559
 50
268.90371704101562
 51
288.15779113769531
  0
ARC
  8
_1-1_
  6
CONTINUOUS
 62
    7
 10
122.69198149933771
 20
153.63406450778444
 40
23.979475176012194
 50
40.177536010742188
 51
116.44371032714844
  0
ARC
  8
_1-1_
  6
CONTINUOUS
 62
    7
 10
123.46847240674904
 20
161.12128424094533
 40
19.990763793120518
 50
58.163726806640632
 51
124.96070861816408
  0
ARC
  8
_1-1_
  6
CONTINUOUS
 62
    7
 10
151.21340483918146
 20
225.93541157017887
 40
53.476063496357689
 50
267.64225769042969
 51
294.05793762207031
  0
ARC
  8
_1-1_
  6
CONTINUOUS
 62
    7
 10
156.98929364302435
 20
194.26894148070463
 40
24.137140737997523
 50
289.41700744628906
 51
297.09066772460937
  0
ARC
  8
_1-1_
  6
CONTINUOUS
 62
    7
 10
110.9145264014175
 20
325.34762651950325
 40
162.07522418047935
 50
289.49891662597656
 51
290.61585998535156
  0
ARC
  8
_1-1_
  6
CONTINUOUS
 62
    7
 10
169.88893782455943
 20
181.81821499738538
 40
6.8071267411515528
 50
279.50886535644531
 51
297.68336486816406
  0
ARC
  8
_1-1_
  6
CONTINUOUS
 62
    7
 10
165.84445969164133
 20
182.80196150023588
 40
9.7883250262286214
 50
282.80255126953125
 51
301.87579345703125
  0
ARC
  8
_1-1_
  6
CONTINUOUS
 62
    7
 10
151.21340483918146
 20
225.93541157017887
 40
52.876065228436453
 50
288.52542114257812
 51
290.13310241699219
  0
ARC
  8
_1-1_
  6
CONTINUOUS
 62
    7
 10
202.93895531030691
 20
217.46809507155135
 40
48.372338784707559
 50
268.90371704101562
 51
288.15779113769531
  0
ARC
  8
_1-1_
  6
CONTINUOUS
 62
    7
 10
175.69198314893654
 20
153.63406450778444
 40
23.979475176012194
 50
40.177536010742188
 51
116.44371032714844
  0
ARC
  8
_1-1_
  6
CONTINUOUS
 62
    7
 10
176.46847405634787
 20
161.12128424094533
 40
19.990763793120518
 50
58.163726806640632
 51
124.96070861816408
  0
ARC
  8
_1-1_
  6
CONTINUOUS
 62
    7
 10
204.21340648878029
 20
225.93541157017887
 40
53.476063496357689
 50
267.64225769042969
 51
294.05793762207031
  0
ARC
  8
_1-1_
  6
CONTINUOUS
 62
    7
 10
209.98929529262321
 20
194.26894148070463
 40
24.137140737997523
 50
289.41700744628906
 51
297.09066772460937
  0
ARC
  8
_1-1_
  6
CONTINUOUS
 62
    7
 10
163.91452805101633
 20
325.34762651950325
 40
162.07522418047935
 50
289.49891662597656
 51
290.61585998535156
  0
ARC
  8
_1-1_
  6
CONTINUOUS
 62
    7
 10
222.88892710216712
 20
181.81821499738538
 40
6.8071267411515528
 50
279.50886535644531
 51
297.68336486816406
  0
ARC
  8
_1-1_
  6
CONTINUOUS
 62
    7
 10
218.84446134124019
 20
182.80196150023588
 40
9.7883250262286214
 50
282.80255126953125
 51
301.87579345703125
  0
ARC
  8
_1-1_
  6
CONTINUOUS
 62
    7
 10
204.21340648878029
 20
225.93541157017887
 40
52.876065228436453
 50
288.52542114257812
 51
290.13310241699219
  0
ARC
  8
_1-1_
  6
CONTINUOUS
 62
    7
 10
255.93894458791459
 20
217.46809507155135
 40
48.372338784707559
 50
268.90371704101562
 51
288.15779113769531
  0
ARC
  8
_1-1_
  6
CONTINUOUS
 62
    7
 10
228.69198479853537
 20
153.63406450778444
 40
23.979475176012194
 50
40.177536010742188
 51
116.44371032714844
  0
ARC
  8
_1-1_
  6
CONTINUOUS
 62
    7
 10
229.46847570594667
 20
161.12128424094533
 40
19.990763793120518
 50
58.163726806640632
 51
124.96070861816408
  0
ARC
  8
_1-1_
  6
CONTINUOUS
 62
    7
 10
257.21340813837912
 20
225.93541157017887
 40
53.476063496357689
 50
267.64225769042969
 51
294.05793762207031
  0
ARC
  8
_1-1_
  6
CONTINUOUS
 62
    7
 10
262.98929694222204
 20
194.26894148070463
 40
24.137140737997523
 50
289.41700744628906
 51
297.09066772460937
  0
ARC
  8
_1-1_
  6
CONTINUOUS
 62
    7
 10
216.91452970061519
 20
325.34762651950325
 40
162.07522418047935
 50
289.49891662597656
 51
290.61585998535156
  0
ARC
  8
_1-1_
  6
CONTINUOUS
 62
    7
 10
275.88892875176595
 20
181.81821499738538
 40
6.8071267411515528
 50
279.50886535644531
 51
297.68336486816406
  0
ARC
  8
_1-1_
  6
CONTINUOUS
 62
    7
 10
271.84445061884787
 20
182.80196150023588
 40
9.7883250262286214
 50
282.80255126953125
 51
301.87579345703125
  0
ARC
  8
_1-1_
  6
CONTINUOUS
 62
    7
 10
257.21340813837912
 20
225.93541157017887
 40
52.876065228436453
 50
288.52542114257812
 51
290.13310241699219
  0
ARC
  8
_1-1_
  6
CONTINUOUS
 62
    7
 10
308.93894623751339
 20
217.46809507155135
 40
48.372338784707559
 50
268.90371704101562
 51
288.15779113769531
  0
ARC
  8
_1-1_
  6
CONTINUOUS
 62
    7
 10
281.69198644813417
 20
153.63406450778444
 40
23.979475176012194
 50
40.177536010742188
 51
116.44371032714844
  0
ARC
  8
_1-1_
  6
CONTINUOUS
 62
    7
 10
282.46847735554547
 20
161.12128424094533
 40
19.990763793120518
 50
58.163726806640632
 51
124.96070861816408
  0
ARC
  8
_1-1_
  6
CONTINUOUS
 62
    7
 10
310.21340978797798
 20
225.93541157017887
 40
53.476063496357689
 50
267.64225769042969
 51
294.05793762207031
  0
ARC
  8
_1-1_
  6
CONTINUOUS
 62
    7
 10
315.9892985918209
 20
194.26894148070463
 40
24.137140737997523
 50
289.41700744628906
 51
297.09066772460937
  0
ARC
  8
_1-1_
  6
CONTINUOUS
 62
    7
 10
269.91451897822287
 20
325.34762651950325
 40
162.07522418047935
 50
289.49891662597656
 51
290.61585998535156
  0
ARC
  8
_1-1_
  6
CONTINUOUS
 62
    7
 10
328.88893040136475
 20
181.81821499738538
 40
6.8071267411515528
 50
279.50886535644531
 51
297.68336486816406
  0
ARC
  8
_1-1_
  6
CONTINUOUS
 62
    7
 10
324.84445226844673
 20
182.80196150023588
 40
9.7883250262286214
 50
282.80255126953125
 51
301.87579345703125
  0
ARC
  8
_1-1_
  6
CONTINUOUS
 62
    7
 10
310.21340978797798
 20
225.93541157017887
 40
52.876065228436453
 50
288.52542114257812
 51
290.13310241699219
  0
ARC
  8
_1-1_
  6
CONTINUOUS
 62
    7
 10
334.69198809773297
 20
153.63406450778444
 40
23.979475176012194
 50
40.177536010742188
 51
116.44371032714844
  0
ARC
  8
_1-1_
  6
CONTINUOUS
 62
    7
 10
335.46847900514433
 20
161.12128424094533
 40
19.990763793120518
 50
58.163726806640632
 51
124.96070861816408
  0
ARC
  8
_1-1_
  6
CONTINUOUS
 62
    7
 10
151.21340483918146
 20
225.93541157017887
 40
52.876065228436453
 50
292.45927429199219
 51
293.19656372070313
  0
ARC
  8
_1-1_
  6
CONTINUOUS
 62
    7
 10
204.21340648878029
 20
225.93541157017887
 40
52.876065228436453
 50
292.45927429199219
 51
293.19656372070313
  0
ARC
  8
_1-1_
  6
CONTINUOUS
 62
    7
 10
257.21340813837912
 20
225.93541157017887
 40
52.876065228436453
 50
292.45927429199219
 51
293.19656372070313
  0
ARC
  8
_1-1_
  6
CONTINUOUS
 62
    7
 10
310.21340978797798
 20
225.93541157017887
 40
52.876065228436453
 50
292.45927429199219
 51
293.19656372070313
  0
ARC
  8
_1-1_
  6
CONTINUOUS
 62
    7
 10
363.21341143757672
 20
225.93541157017887
 40
53.476063496357689
 50
267.64225769042969
 51
279.69146049232131
  0
ARC
  8
_1-1_
  6
CONTINUOUS
 62
    7
 10
361.93894788711225
 20
217.46809507155135
 40
48.372338784707559
 50
268.90371704101562
 51
282.19622896559156
  0
LINE
  8
_1-0_
  6
CONTINUOUS
 62
    2
 10
129.27828887015937
 20
183.04827199113785
 11
129.27828887015937
 21
180.51750697319022
  0
LINE
  8
_1-0_
  6
CONTINUOUS
 62
    2
 10
108.59829536957872
 20
183.04827199113785
 11
129.27828887015937
 21
183.04827199113785
  0
LINE
  8
_1-0_
  6
CONTINUOUS
 62
    7
 10
123.84543826442669
 20
183.04827199113785
 11
125.59859889576117
 21
181.29512373179452
  0
LINE
  8
_1-0_
  6
CONTINUOUS
 62
    7
 10
124.69395890420711
 20
183.04827199113785
 11
125.59859889576117
 21
182.14364437157494
  0
LINE
  8
_1-0_
  6
CONTINUOUS
 62
    7
 10
125.5424795439875
 20
183.04827199113785
 11
125.59859889576117
 21
182.99215263936421
  0
LINE
  8
_1-0_
  6
CONTINUOUS
 62
    7
 10
120.59859477176411
 20
181.49499324852806
 11
122.1518735143739
 21
183.04827199113785
  0
LINE
  8
_1-0_
  6
CONTINUOUS
 62
    7
 10
120.59859477176411
 20
182.3435262602996
 11
121.30335287459351
 21
183.04827199113785
  0
LINE
  8
_1-0_
  6
CONTINUOUS
 62
    7
 10
113.71814697166911
 20
188.04827611513491
 11
113.71814697166911
 21
236.37499739198114
  0
LINE
  8
_1-0_
  6
CONTINUOUS
 62
    7
 10
111.31814152799299
 20
188.04827611513491
 11
113.71814697166911
 21
188.04827611513491
  0
LINE
  8
_1-0_
  6
CONTINUOUS
 62
    7
 10
111.31814152799299
 20
188.04827611513491
 11
111.31814152799299
 21
236.37499739198114
  0
LINE
  8
_1-0_
  6
CONTINUOUS
 62
    7
 10
120.59859477176411
 20
180.90497548885332
 11
120.59859477176411
 21
183.04827199113785
  0
LINE
  8
_1-0_
  6
CONTINUOUS
 62
    7
 10
120.59859477176411
 20
181.20401638910027
 11
120.86130473391911
 21
180.94130729234689
  0
LINE
  8
_1-0_
  6
CONTINUOUS
 62
    7
 10
120.8982673734515
 20
180.94613438209774
 11
123.00039415415432
 21
183.04827199113785
  0
LINE
  8
_1-0_
  6
CONTINUOUS
 62
    7
 10
120.59859477176411
 20
182.05253702888066
 11
121.62432663221304
 21
181.02680516843174
  0
LINE
  8
_1-0_
  6
CONTINUOUS
 62
    7
 10
121.84682556026648
 20
181.04616563425935
 11
123.84893953791698
 21
183.04827199113785
  0
LINE
  8
_1-0_
  6
CONTINUOUS
 62
    7
 10
120.59859477176411
 20
182.90105766866108
 11
122.41536250001953
 21
181.08428994040568
  0
LINE
  8
_1-0_
  6
CONTINUOUS
 62
    7
 10
122.74826441140712
 20
181.09907034140662
 11
124.69746017769739
 21
183.04827199113785
  0
LINE
  8
_1-0_
  6
CONTINUOUS
 62
    7
 10
121.29990108906776
 20
183.04827199113785
 11
123.23745436412578
 21
181.11071313964879
  0
LINE
  8
_1-0_
  6
CONTINUOUS
 62
    7
 10
122.14842172884815
 20
183.04827199113785
 11
124.09444157205283
 21
181.10224516970015
  0
LINE
  8
_1-0_
  6
CONTINUOUS
 62
    7
 10
123.60927337444511
 20
181.11155217611403
 11
125.54599318946893
 21
183.04827199113785
  0
LINE
  8
_1-0_
  6
CONTINUOUS
 62
    7
 10
122.99692999663742
 20
183.04827199113785
 11
124.99123528161012
 21
181.05396670616517
  0
LINE
  8
_1-0_
  6
CONTINUOUS
 62
    7
 10
124.43492407195659
 20
181.08867285866788
 11
125.59859889576117
 21
182.25234468565856
  0
LINE
  8
_1-0_
  6
CONTINUOUS
 62
    7
 10
125.22913864780129
 20
181.03436264233665
 11
125.59859889576117
 21
181.40382404587814
  0
LINE
  8
_1-0_
  6
CONTINUOUS
 62
    7
 10
125.59859889576117
 20
180.99823567151302
 11
125.59859889576117
 21
183.04827199113785
  0
TEXT
  8
_1-0_
 62
    7
 10
61.093177489247211
 20
178.17510972966062
 40
3
 41
1
 50
90
  1
150
  0
TEXT
  8
_1-0_
 62
    7
 10
53.540120205278669
 20
193.00114716235697
 40
3
 41
1
 50
90
  1
300
  0
TEXT
  8
_1-0_
 62
    7
 10
124.92359543160364
 20
135.00304667539541
 40
3
 41
1
 50
0
  1
200
  0
TEXT
  8
_1-0_
 62
    7
 10
274.36682696269531
 20
117.97519072496256
 40
3
 41
1
 50
0
  1
桟瓦
  0
TEXT
  8
_1-0_
 62
    7
 10
274.36683108669229
 20
103.54024430393216
 40
3
 41
1
 50
0
  1
流し桟
  0
TEXT
  8
_1-0_
 62
    7
 10
274.36682696269531
 20
89.768987161169264
 40
3
 41
1
 50
0
  1
野地板　　ｔ＝12
  0
TEXT
  8
_1-0_
 62
    7
 10
274.36682696269531
 20
82.966315883324043
 40
3
 41
1
 50
0
  1
垂木　　　60ｘ60
  0
TEXT
  8
_1-0_
 62
    7
 10
127.00589020501477
 20
239.57333030741611
 40
3
 41
1
 50
0
  1
外壁
  0
TEXT
  8
_1-0_
 62
    7
 10
139.80355000165224
 20
225.19789316372945
 40
3
 41
1
 50
0
  1
壁際水切鉄板
  0
TEXT
  8
_1-0_
 62
    7
 10
142.78382863538849
 20
206.79027564630968
 40
3
 41
1
 50
0
  1
発泡弾性シール材
  0
TEXT
  8
_1-0_
 62
    7
 10
140.32948540666172
 20
192.23951501629492
 40
3
 41
1
 50
0
  1
捨谷
  0
TEXT
  8
_1-0_
 62
    7
 10
140.68010763533573
 20
189.08392733022015
 40
3
 41
1
 50
0
  1
ステンレス　ｔ＝0.4
  0
TEXT
  8
_1-0_
 62
    7
 10
55.621665442227055
 20
128.22380176275817
 40
3
 41
1
 50
0
  1
２重貼り
  0
TEXT
  8
_1-0_
 62
    7
 10
274.67236977968219
 20
97.056034263813913
 40
3
 41
1
 50
0
  1
下葺き材　　　ゴムアス系ルーフィング
  0
TEXT
  8
_1-0_
 62
    7
 10
274.36683521068937
 20
110.67475094191779
 40
3
 41
1
 50
0
  1
瓦桟　　18ｘ24
  0
TEXT
  8
_1-0_
 62
    7
 10
24.781139046471111
 20
132.14615404771575
 40
3
 41
1
 50
0
  1
ゴムアスファルトルーフィング
  0
LINE
  8
_1-0_
  6
CONTINUOUS
 62
    7
 10
124.68707010625334
 20
182.44853721487809
 11
133.9304040946804
 21
207.84439403471762
  0
LINE
  8
_1-0_
  6
CONTINUOUS
 62
    7
 10
133.9304040946804
 20
207.84439403471762
 11
140.24182778749469
 21
207.84439403471762
  0
TEXT
  8
_0-1_
 62
    7
 10
310.75285402229287
 20
13.379928041157285
 40
3
 41
1
 50
0
  1
〒475－0807　半田市八軒町２８番地
  0
LINE
  8
_1-0_
  6
CONTINUOUS
 62
    2
 10
108.59829536957872
 20
183.04827199113785
 11
108.59829536957872
 21
213.04827199113785
  0
LINE
  8
_1-0_
  6
CONTINUOUS
 62
    7
 10
107.31814070319361
 20
215.39954979293745
 11
111.31814152799299
 21
215.39954979293745
  0
LINE
  8
_1-0_
  6
CONTINUOUS
 62
    7
 10
107.31814070319361
 20
223.39955144253628
 11
111.31814152799299
 21
223.39955144253628
  0
LINE
  8
_1-0_
  6
CONTINUOUS
 62
    7
 10
107.31814070319361
 20
215.39954979293745
 11
107.31814070319361
 21
223.39955144253628
  0
LINE
  8
_1-0_
  6
CONTINUOUS
 62
    7
 10
107.31814070319361
 20
223.39955144253628
 11
111.31814152799299
 21
215.39954979293745
  0
LINE
  8
_1-0_
  6
CONTINUOUS
 62
    7
 10
78.987252217432882
 20
183.04827199113785
 11
78.987252217432882
 21
213.04827199113785
  0
POINT
  8
_1-0_
 62
    7
 10
78.987252217432882
 20
183.04827199113785
  0
POINT
  8
_1-0_
 62
    7
 10
78.987252217432882
 20
213.04827199113785
  0
LINE
  8
_1-0_
  6
CONTINUOUS
 62
    7
 10
78.987252217432882
 20
183.04827199113785
 11
98.890476436143331
 21
183.04827199113785
  0
LINE
  8
_1-0_
  6
CONTINUOUS
 62
    7
 10
78.987252217432882
 20
213.04827199113785
 11
98.890476436143331
 21
213.04827199113785
  0
TEXT
  8
_1-0_
 62
    7
 10
78.487252217432882
 20
195.54827199113785
 40
3
 41
1
 50
90
  1
150
  0
TEXT
  8
_1-0_
 62
    7
 10
35.591861333473076
 20
210.09222817613687
 40
3
 41
1
 50
0
  1
水切り鉄板立上がり寸法
  0
LINE
  8
_1-0_
  6
CONTINUOUS
 62
    7
 10
68.051148348552914
 20
208.81247134041689
 11
74.682615588192903
 21
199.73783195985692
  0
LINE
  8
_1-0_
  6
CONTINUOUS
 62
    7
 10
74.682615588192903
 20
199.73783195985692
 11
74.449932527152896
 21
201.94832103973692
  0
ENDSEC
  0
EOF
