0
SECTION
2
HEADER
  9
$EXTMIN
10
0
20
0
30
0
  9
$EXTMAX
10
1313.514
20
1279.527
30
0
  9
$LTSCALE
40
5.000
  9
$DIMSCALE
40
5.000
  9
$PDMODE
70
0
  9
$PDSIZE
40
40
0
ENDSEC
0
SECTION
2
TABLES
0
TABLE
2
LTYPE
70
9
0
LTYPE
5
1f4
2
CONTINUOUS
70
0
3
実線
72
65
73
0
40
0.0
0
LTYPE
5
1f5
2
DOT
70
0
3
--  --  --  --  --  --  --  --     
72
65
73
2
40
5.000
49
1.000
49
-4.000
0
LTYPE
5
1f6
2
DASHED
70
0
3
----    ----    ----    ----    
72
65
73
2
40
5.000
49
2.000
49
-3.000
0
LTYPE
5
1f7
2
DASHED2
70
0
3
------  ------  ------  ------ 
72
65
73
2
40
10.000
49
4.000
49
-6.000
0
LTYPE
5
1f8
2
CENTER
70
0
3
----- - ----- - ----- - ----- - 
72
65
73
4
40
9.000
49
6.000
49
-1.000
49
1.000
49
-1.000
0
LTYPE
5
1f9
2
CENTER2
70
0
3
----------  --  ----------  -- 
72
65
73
4
40
18.000
49
12.000
49
-2.000
49
2.000
49
-2.000
0
LTYPE
5
1fa
2
PHANTOM
70
0
3
--- - - --- - - --- - - --- - -
72
65
73
6
40
10.000
49
5.000
49
-1.000
49
1.000
49
-1.000
49
1.000
49
-1.000
0
LTYPE
5
1fb
2
PHANTOM2
70
0
3
--------  -  -  --------  -  -
72
65
73
6
40
16.000
49
6.000
49
-2.000
49
2.000
49
-2.000
49
2.000
49
-2.000
0
LTYPE
5
1fc
2
HIDDEN
70
0
3
-   -   -   -   -   -   -   -   
72
65
73
2
40
2.500
49
0.500
49
-2.000
0
ENDTAB
0
TABLE
2
STYLE
70
1
0
STYLE
5
1fd
100
AcDbSymbolTableRecord
100
AcDbTextStyleTableRecord
2
STANDARD
70
0
40
0.0
41
1.0
50
0.0
71
0
42
0.0
3
txt.shx
4
extfont.shx
0
STYLE
5
1fe
100
AcDbSymbolTableRecord
100
AcDbTextStyleTableRecord
2
TATEGAKI
70
4
40
0.0
41
1.0
50
0.0
71
0
42
0.0
3
txt.shx
4
extfont.shx
0
STYLE
5
1ff
100
AcDbSymbolTableRecord
100
AcDbTextStyleTableRecord
2
MT
70
0
40
0.0
41
1.0
50
0.0
71
0
42
0.0
3
MS Mincho
4

0
STYLE
5
200
100
AcDbSymbolTableRecord
100
AcDbTextStyleTableRecord
2
TMT
70
4
40
0.0
41
1.0
50
0.0
71
0
42
0.0
3
@MS Mincho
4

0
ENDTAB
0
TABLE
2
LAYER
5
3bea
100
AcDbSymbolTable
70
10
0
LAYER
5
3beb
100
AcDbSymbolTableRecord
100
AcDbLayerTableRecord
2
0
70
64
62
  7
  6
CONTINUOUS
0
LAYER
5
3bec
100
AcDbSymbolTableRecord
100
AcDbLayerTableRecord
2
0-0
70
64
62
  7
  6
CONTINUOUS
0
LAYER
5
3bed
100
AcDbSymbolTableRecord
100
AcDbLayerTableRecord
2
0-1
70
64
62
  7
  6
CONTINUOUS
0
LAYER
5
3bee
100
AcDbSymbolTableRecord
100
AcDbLayerTableRecord
2
0-2
70
64
62
  7
  6
CONTINUOUS
0
LAYER
5
3bef
100
AcDbSymbolTableRecord
100
AcDbLayerTableRecord
2
ADD_LINE
70
64
62
  -7
  6
CONTINUOUS
0
ENDTAB
0
ENDSEC
0
SECTION
2
ENTITIES
0
LINE
5
3bf0
8
0-0
6
CONTINUOUS
62
  7
10
802.703
20
1042.432
30
0.0
11
1102.703
21
1042.432
31
0.0
0
LINE
5
3bf1
8
0-0
6
CONTINUOUS
62
  7
10
1102.703
20
1042.432
30
0.0
11
1102.703
21
822.432
31
0.0
0
LINE
5
3bf2
8
0-0
6
CONTINUOUS
62
  7
10
1102.703
20
822.432
30
0.0
11
802.703
21
822.432
31
0.0
0
LINE
5
3bf3
8
0-0
6
CONTINUOUS
62
  7
10
802.703
20
1037.432
30
0.0
11
1102.703
21
1037.432
31
0.0
0
LINE
5
3bf4
8
0-0
6
CONTINUOUS
62
  7
10
1102.703
20
827.432
30
0.0
11
802.703
21
827.432
31
0.0
0
LINE
5
3bf5
8
0-0
6
CONTINUOUS
62
  7
10
1127.703
20
1017.432
30
0.0
11
1127.703
21
847.432
31
0.0
0
LINE
5
3bf6
8
0-0
6
CONTINUOUS
62
  7
10
1102.703
20
1017.432
30
0.0
11
1127.703
21
1017.432
31
0.0
0
LINE
5
3bf7
8
0-0
6
CONTINUOUS
62
  7
10
1102.703
20
847.432
30
0.0
11
1127.703
21
847.432
31
0.0
0
LINE
5
3bf8
8
0-0
6
CONTINUOUS
62
  7
10
1110.703
20
921.432
30
0.0
11
1117.703
21
921.432
31
0.0
0
LINE
5
3bf9
8
0-0
6
CONTINUOUS
62
  7
10
1110.703
20
943.432
30
0.0
11
1117.703
21
943.432
31
0.0
0
LINE
5
3bfa
8
0-0
6
CONTINUOUS
62
  7
10
1102.703
20
943.432
30
0.0
11
1130.703
21
943.432
31
0.0
0
LINE
5
3bfb
8
0-0
6
CONTINUOUS
62
  7
10
1130.703
20
943.432
30
0.0
11
1130.703
21
921.432
31
0.0
0
LINE
5
3bfc
8
0-0
6
CONTINUOUS
62
  7
10
1102.703
20
921.432
30
0.0
11
1130.703
21
921.432
31
0.0
0
LINE
5
3bfd
8
0-0
6
CONTINUOUS
62
  7
10
1110.703
20
1017.432
30
0.0
11
1110.703
21
956.932
31
0.0
0
LINE
5
3bfe
8
0-0
6
CONTINUOUS
62
  7
10
1117.703
20
1017.432
30
0.0
11
1117.703
21
956.932
31
0.0
0
LINE
5
3bff
8
0-0
6
CONTINUOUS
62
  7
10
1110.703
20
907.932
30
0.0
11
1110.703
21
847.432
31
0.0
0
LINE
5
3c00
8
0-0
6
CONTINUOUS
62
  7
10
1117.703
20
907.932
30
0.0
11
1117.703
21
847.432
31
0.0
0
LINE
5
3c01
8
0-0
6
CONTINUOUS
62
  7
10
802.703
20
822.432
30
0.0
11
802.703
21
1042.432
31
0.0
0
LINE
5
3c02
8
0-0
6
CONTINUOUS
62
  7
10
802.703
20
558.108
30
0.0
11
1102.703
21
558.108
31
0.0
0
LINE
5
3c03
8
0-0
6
CONTINUOUS
62
  7
10
802.703
20
558.108
30
0.0
11
802.703
21
458.108
31
0.0
0
LINE
5
3c04
8
0-0
6
CONTINUOUS
62
  7
10
802.703
20
458.108
30
0.0
11
1102.703
21
458.108
31
0.0
0
LINE
5
3c05
8
0-0
6
CONTINUOUS
62
  7
10
1102.703
20
558.108
30
0.0
11
1102.703
21
458.108
31
0.0
0
LINE
5
3c06
8
0-0
6
CONTINUOUS
62
  7
10
802.703
20
490.108
30
0.0
11
1102.703
21
490.108
31
0.0
0
LINE
5
3c07
8
0-0
6
CONTINUOUS
62
  7
10
1102.703
20
471.108
30
0.0
11
1127.703
21
471.108
31
0.0
0
LINE
5
3c08
8
0-0
6
CONTINUOUS
62
  7
10
1127.703
20
531.108
30
0.0
11
1127.703
21
471.108
31
0.0
0
LINE
5
3c09
8
0-0
6
CONTINUOUS
62
  7
10
1127.703
20
524.108
30
0.0
11
1130.703
21
524.108
31
0.0
0
LINE
5
3c0a
8
0-0
6
CONTINUOUS
62
  7
10
1102.703
20
531.108
30
0.0
11
1130.703
21
531.108
31
0.0
0
LINE
5
3c0b
8
0-0
6
CONTINUOUS
62
  7
10
1130.703
20
531.108
30
0.0
11
1130.703
21
524.108
31
0.0
0
LINE
5
3c0c
8
0-0
6
CONTINUOUS
62
  7
10
1102.703
20
479.108
30
0.0
11
1127.703
21
479.108
31
0.0
0
LINE
5
3c0d
8
0-0
6
CONTINUOUS
62
  7
10
1118.703
20
479.108
30
0.0
11
1118.703
21
519.108
31
0.0
0
LINE
5
3c0e
8
0-0
6
CONTINUOUS
62
  7
10
1111.703
20
479.108
30
0.0
11
1111.703
21
519.108
31
0.0
0
LINE
5
3c0f
8
0-0
6
CONTINUOUS
62
  7
10
417.568
20
1042.432
30
0.0
11
449.568
21
1037.364
31
0.0
0
LINE
5
3c10
8
0-0
6
CONTINUOUS
62
  7
10
417.568
20
1042.432
30
0.0
11
422.568
21
1032.432
31
0.0
0
LINE
5
3c11
8
0-0
6
CONTINUOUS
62
  7
10
422.568
20
1032.432
30
0.0
11
442.568
21
1017.723
31
0.0
0
LINE
5
3c12
8
0-0
6
CONTINUOUS
62
  7
10
417.568
20
822.432
30
0.0
11
449.568
21
827.501
31
0.0
0
LINE
5
3c13
8
0-0
6
CONTINUOUS
62
  7
10
417.568
20
822.432
30
0.0
11
422.568
21
832.432
31
0.0
0
LINE
5
3c14
8
0-0
6
CONTINUOUS
62
  7
10
422.568
20
832.432
30
0.0
11
442.568
21
847.142
31
0.0
0
LINE
5
3c15
8
0-0
6
CONTINUOUS
62
  7
10
442.568
20
847.142
30
0.0
11
491.441
21
916.941
31
0.0
0
LINE
5
3c16
8
0-0
6
CONTINUOUS
62
  7
10
442.568
20
1017.723
30
0.0
11
491.441
21
947.924
31
0.0
0
LINE
5
3c17
8
0-0
6
CONTINUOUS
62
  7
10
449.568
20
827.501
30
0.0
11
513.646
21
919.014
31
0.0
0
LINE
5
3c18
8
0-0
6
CONTINUOUS
62
  7
10
449.568
20
1037.364
30
0.0
11
512.441
21
947.571
31
0.0
0
LINE
5
3c19
8
0-2
6
CONTINUOUS
62
  7
10
417.568
20
1277.027
30
0.0
11
517.568
21
1277.027
31
0.0
0
LINE
5
3c1a
8
0-2
6
CONTINUOUS
62
  7
10
417.568
20
1127.027
30
0.0
11
417.568
21
1277.027
31
0.0
0
LINE
5
3c1b
8
0-2
6
CONTINUOUS
62
  7
10
517.568
20
1127.027
30
0.0
11
517.568
21
1277.027
31
0.0
0
LINE
5
3c1c
8
0-2
6
CONTINUOUS
62
  7
10
802.703
20
1277.027
30
0.0
11
1102.703
21
1277.027
31
0.0
0
LINE
5
3c1d
8
0-2
6
CONTINUOUS
62
  7
10
802.703
20
1127.027
30
0.0
11
802.703
21
1277.027
31
0.0
0
LINE
5
3c1e
8
0-2
6
CONTINUOUS
62
  7
10
1102.703
20
1127.027
30
0.0
11
1102.703
21
1277.027
31
0.0
0
LINE
5
3c1f
8
0-2
6
CONTINUOUS
62
  7
10
1102.703
20
1277.027
30
0.0
11
1127.703
21
1277.027
31
0.0
0
LINE
5
3c20
8
0-2
6
CONTINUOUS
62
  7
10
1127.703
20
1127.027
30
0.0
11
1127.703
21
1277.027
31
0.0
0
LINE
5
3c21
8
0-2
6
CONTINUOUS
62
  7
10
304.054
20
1042.432
30
0.0
11
304.054
21
822.432
31
0.0
0
LINE
5
3c22
8
0-2
6
CONTINUOUS
62
  7
10
385.135
20
1042.432
30
0.0
11
304.054
21
1042.432
31
0.0
0
LINE
5
3c23
8
0-2
6
CONTINUOUS
62
  7
10
385.135
20
822.432
30
0.0
11
304.054
21
822.432
31
0.0
0
LINE
5
3c24
8
0-2
6
CONTINUOUS
62
  7
10
689.189
20
1042.432
30
0.0
11
689.189
21
822.432
31
0.0
0
LINE
5
3c25
8
0-2
6
CONTINUOUS
62
  7
10
770.270
20
1042.432
30
0.0
11
689.189
21
1042.432
31
0.0
0
LINE
5
3c26
8
0-2
6
CONTINUOUS
62
  7
10
770.270
20
822.432
30
0.0
11
689.189
21
822.432
31
0.0
0
LINE
5
3c27
8
0-2
6
CONTINUOUS
62
  7
10
689.189
20
558.108
30
0.0
11
689.189
21
458.108
31
0.0
0
LINE
5
3c28
8
0-2
6
CONTINUOUS
62
  7
10
770.270
20
558.108
30
0.0
11
689.189
21
558.108
31
0.0
0
LINE
5
3c29
8
0-2
6
CONTINUOUS
62
  7
10
770.270
20
458.108
30
0.0
11
689.189
21
458.108
31
0.0
0
LINE
5
3c2a
8
0-2
6
CONTINUOUS
62
  7
10
725.072
20
458.108
30
0.0
11
725.072
21
490.108
31
0.0
0
LINE
5
3c2b
8
0-2
6
CONTINUOUS
62
  7
10
770.270
20
458.108
30
0.0
11
725.072
21
458.108
31
0.0
0
LINE
5
3c2c
8
0-2
6
CONTINUOUS
62
  7
10
770.270
20
490.108
30
0.0
11
725.072
21
490.108
31
0.0
0
LINE
5
3c2d
8
0-2
6
CONTINUOUS
62
  7
10
725.072
20
490.108
30
0.0
11
725.072
21
558.108
31
0.0
0
LINE
5
3c2e
8
0-2
6
CONTINUOUS
62
  7
10
770.270
20
558.108
30
0.0
11
725.072
21
558.108
31
0.0
0
LINE
5
3c2f
8
0-2
6
CONTINUOUS
62
  7
10
1313.514
20
458.108
30
0.0
11
1313.514
21
531.108
31
0.0
0
LINE
5
3c30
8
0-2
6
CONTINUOUS
62
  7
10
1195.946
20
458.108
30
0.0
11
1313.514
21
458.108
31
0.0
0
LINE
5
3c31
8
0-2
6
CONTINUOUS
62
  7
10
1195.946
20
531.108
30
0.0
11
1313.514
21
531.108
31
0.0
0
LINE
5
3c32
8
0-2
6
CONTINUOUS
62
  7
10
1313.514
20
847.432
30
0.0
11
1313.514
21
1017.432
31
0.0
0
LINE
5
3c33
8
0-2
6
CONTINUOUS
62
  7
10
1195.946
20
847.432
30
0.0
11
1313.514
21
847.432
31
0.0
0
LINE
5
3c34
8
0-2
6
CONTINUOUS
62
  7
10
1195.946
20
1017.432
30
0.0
11
1313.514
21
1017.432
31
0.0
0
LINE
5
3c35
8
ADD_LINE
6
HIDDEN
62
  3
10
802.703
20
458.108
30
0.0
11
795.096
21
458.108
31
0.0
0
LINE
5
3c36
8
ADD_LINE
6
HIDDEN
62
  3
10
802.703
20
458.108
30
0.0
11
802.703
21
452.047
31
0.0
0
LINE
5
3c37
8
ADD_LINE
6
HIDDEN
62
  3
10
802.703
20
932.432
30
0.0
11
794.796
21
932.432
31
0.0
0
LINE
5
3c38
8
ADD_LINE
6
HIDDEN
62
  3
10
794.796
20
932.432
30
0.0
11
389.189
21
932.432
31
0.0
0
LINE
5
3c39
8
ADD_LINE
6
HIDDEN
62
  3
10
802.703
20
932.432
30
0.0
11
929.703
21
932.432
31
0.0
0
LINE
5
3c3a
8
0-0
6
CONTINUOUS
62
  7
10
802.703
20
932.432
30
0.0
11
929.703
21
932.432
31
0.0
0
LINE
5
3c3b
8
ADD_LINE
6
HIDDEN
62
  3
10
935.703
20
932.432
30
0.0
11
954.703
21
932.432
31
0.0
0
LINE
5
3c3c
8
ADD_LINE
6
HIDDEN
62
  3
10
960.703
20
932.432
30
0.0
11
1102.703
21
932.432
31
0.0
0
LINE
5
3c3d
8
0-0
6
CONTINUOUS
62
  7
10
935.703
20
932.432
30
0.0
11
954.703
21
932.432
31
0.0
0
LINE
5
3c3e
8
0-0
6
CONTINUOUS
62
  7
10
960.703
20
932.432
30
0.0
11
1102.703
21
932.432
31
0.0
0
ARC
5
3c3f
8
0-0
6
CONTINUOUS
62
  7
10
1114.203
20
958.995
30
0.0
40
4.062
50
210.509644
51
329.489471
0
ARC
5
3c40
8
0-0
6
CONTINUOUS
62
  7
10
1114.203
20
905.870
30
0.0
40
4.062
50
30.510529
51
149.490356
0
CIRCLE
5
3c41
8
0-0
6
CONTINUOUS
62
  7
10
932.703
20
932.432
30
0.0
40
3.000
0
CIRCLE
5
3c42
8
0-0
6
CONTINUOUS
62
  7
10
957.703
20
932.432
30
0.0
40
3.000
0
ARC
5
3c43
8
0-0
6
CONTINUOUS
62
  7
10
1115.203
20
517.046
30
0.0
40
4.063
50
30.510773
51
149.489227
0
ARC
5
3c44
8
0-0
6
CONTINUOUS
62
  7
10
470.598
20
932.432
30
0.0
40
25.970
50
323.380341
51
36.619659
0
ARC
5
3c45
8
0-0
6
CONTINUOUS
62
  7
10
492.651
20
932.432
30
0.0
40
24.917
50
327.414825
51
37.413742
0
CIRCLE
5
3c46
8
ADD_LINE
6
HIDDEN
62
  3
10
802.703
20
932.432
30
0.0
40
3.000
0
CIRCLE
5
3c47
8
ADD_LINE
6
HIDDEN
62
  3
10
802.703
20
458.108
30
0.0
40
3.000
0
TEXT
5
3c48
100
AcDbEntity
8
0-2
62
7
100
AcDbText
10
458.193
20
1279.527
30
0.0
40
9.750
41
0.800
50
0.000
1
100
100
AcDbText
0
TEXT
5
3c49
100
AcDbEntity
8
0-2
62
7
100
AcDbText
10
943.328
20
1279.527
30
0.0
40
9.750
41
0.800
50
0.000
1
300
100
AcDbText
0
TEXT
5
3c4a
100
AcDbEntity
8
0-2
62
7
100
AcDbText
10
1108.953
20
1279.527
30
0.0
40
9.750
41
0.800
50
0.000
1
25
100
AcDbText
0
TEXT
5
3c4b
100
AcDbEntity
8
0-2
62
7
100
AcDbText
10
301.554
20
923.057
30
0.0
40
9.750
41
0.800
50
90.000
1
220
100
AcDbText
0
TEXT
5
3c4c
100
AcDbEntity
8
0-2
62
7
100
AcDbText
10
686.689
20
923.057
30
0.0
40
9.750
41
0.800
50
90.000
1
220
100
AcDbText
0
TEXT
5
3c4d
100
AcDbEntity
8
0-2
62
7
100
AcDbText
10
686.689
20
498.733
30
0.0
40
9.750
41
0.800
50
90.000
1
100
100
AcDbText
0
TEXT
5
3c4e
100
AcDbEntity
8
0-2
62
7
100
AcDbText
10
722.572
20
467.858
30
0.0
40
9.750
41
0.800
50
90.000
1
32
100
AcDbText
0
TEXT
5
3c4f
100
AcDbEntity
8
0-2
62
7
100
AcDbText
10
722.572
20
517.858
30
0.0
40
9.750
41
0.800
50
90.000
1
68
100
AcDbText
0
TEXT
5
3c50
100
AcDbEntity
8
0-2
62
7
100
AcDbText
10
1311.014
20
488.358
30
0.0
40
9.750
41
0.800
50
90.000
1
73
100
AcDbText
0
TEXT
5
3c51
100
AcDbEntity
8
0-2
62
7
100
AcDbText
10
1311.014
20
923.057
30
0.0
40
9.750
41
0.800
50
90.000
1
170
100
AcDbText
0
POINT
5
3c52
8
0-2
62
  7
10
417.568
20
1277.027
30
0.0
0
POINT
5
3c53
8
0-2
62
  7
10
517.568
20
1277.027
30
0.0
0
POINT
5
3c54
8
0-2
62
  7
10
802.703
20
1277.027
30
0.0
0
POINT
5
3c55
8
0-2
62
  7
10
1102.703
20
1277.027
30
0.0
0
POINT
5
3c56
8
0-2
62
  7
10
1127.703
20
1277.027
30
0.0
0
POINT
5
3c57
8
0-2
62
  7
10
304.054
20
1042.432
30
0.0
0
POINT
5
3c58
8
0-2
62
  7
10
304.054
20
822.432
30
0.0
0
POINT
5
3c59
8
0-2
62
  7
10
689.189
20
1042.432
30
0.0
0
POINT
5
3c5a
8
0-2
62
  7
10
689.189
20
822.432
30
0.0
0
POINT
5
3c5b
8
0-2
62
  7
10
689.189
20
558.108
30
0.0
0
POINT
5
3c5c
8
0-2
62
  7
10
689.189
20
458.108
30
0.0
0
POINT
5
3c5d
8
0-2
62
  7
10
725.072
20
458.108
30
0.0
0
POINT
5
3c5e
8
0-2
62
  7
10
725.072
20
490.108
30
0.0
0
POINT
5
3c5f
8
0-2
62
  7
10
725.072
20
558.108
30
0.0
0
POINT
5
3c60
8
0-2
62
  7
10
1313.514
20
458.108
30
0.0
0
POINT
5
3c61
8
0-2
62
  7
10
1313.514
20
531.108
30
0.0
0
POINT
5
3c62
8
0-2
62
  7
10
1313.514
20
847.432
30
0.0
0
POINT
5
3c63
8
0-2
62
  7
10
1313.514
20
1017.432
30
0.0
0
ENDSEC
0
EOF
