0
SECTION
2
HEADER
  9
$EXTMIN
10
0
20
0
30
0
  9
$EXTMAX
10
1431.409
20
1279.527
30
0
  9
$LTSCALE
40
5.000
  9
$DIMSCALE
40
5.000
  9
$PDMODE
70
0
  9
$PDSIZE
40
40
0
ENDSEC
0
SECTION
2
TABLES
0
TABLE
2
LTYPE
70
9
0
LTYPE
5
1f4
2
CONTINUOUS
70
0
3
実線
72
65
73
0
40
0.0
0
LTYPE
5
1f5
2
DOT
70
0
3
--  --  --  --  --  --  --  --     
72
65
73
2
40
5.000
49
1.000
49
-4.000
0
LTYPE
5
1f6
2
DASHED
70
0
3
----    ----    ----    ----    
72
65
73
2
40
5.000
49
2.000
49
-3.000
0
LTYPE
5
1f7
2
DASHED2
70
0
3
------  ------  ------  ------ 
72
65
73
2
40
10.000
49
4.000
49
-6.000
0
LTYPE
5
1f8
2
CENTER
70
0
3
----- - ----- - ----- - ----- - 
72
65
73
4
40
9.000
49
6.000
49
-1.000
49
1.000
49
-1.000
0
LTYPE
5
1f9
2
CENTER2
70
0
3
----------  --  ----------  -- 
72
65
73
4
40
18.000
49
12.000
49
-2.000
49
2.000
49
-2.000
0
LTYPE
5
1fa
2
PHANTOM
70
0
3
--- - - --- - - --- - - --- - -
72
65
73
6
40
10.000
49
5.000
49
-1.000
49
1.000
49
-1.000
49
1.000
49
-1.000
0
LTYPE
5
1fb
2
PHANTOM2
70
0
3
--------  -  -  --------  -  -
72
65
73
6
40
16.000
49
6.000
49
-2.000
49
2.000
49
-2.000
49
2.000
49
-2.000
0
LTYPE
5
1fc
2
HIDDEN
70
0
3
-   -   -   -   -   -   -   -   
72
65
73
2
40
2.500
49
0.500
49
-2.000
0
ENDTAB
0
TABLE
2
STYLE
70
1
0
STYLE
5
1fd
100
AcDbSymbolTableRecord
100
AcDbTextStyleTableRecord
2
STANDARD
70
0
40
0.0
41
1.0
50
0.0
71
0
42
0.0
3
txt.shx
4
extfont.shx
0
STYLE
5
1fe
100
AcDbSymbolTableRecord
100
AcDbTextStyleTableRecord
2
TATEGAKI
70
4
40
0.0
41
1.0
50
0.0
71
0
42
0.0
3
txt.shx
4
extfont.shx
0
STYLE
5
1ff
100
AcDbSymbolTableRecord
100
AcDbTextStyleTableRecord
2
MT
70
0
40
0.0
41
1.0
50
0.0
71
0
42
0.0
3
MS Mincho
4

0
STYLE
5
200
100
AcDbSymbolTableRecord
100
AcDbTextStyleTableRecord
2
TMT
70
4
40
0.0
41
1.0
50
0.0
71
0
42
0.0
3
@MS Mincho
4

0
ENDTAB
0
TABLE
2
LAYER
5
3692
100
AcDbSymbolTable
70
10
0
LAYER
5
3693
100
AcDbSymbolTableRecord
100
AcDbLayerTableRecord
2
0
70
64
62
  7
  6
CONTINUOUS
0
LAYER
5
3694
100
AcDbSymbolTableRecord
100
AcDbLayerTableRecord
2
0-0
70
64
62
  7
  6
CONTINUOUS
0
LAYER
5
3695
100
AcDbSymbolTableRecord
100
AcDbLayerTableRecord
2
0-1
70
64
62
  7
  6
CONTINUOUS
0
LAYER
5
3696
100
AcDbSymbolTableRecord
100
AcDbLayerTableRecord
2
0-2
70
64
62
  7
  6
CONTINUOUS
0
LAYER
5
3697
100
AcDbSymbolTableRecord
100
AcDbLayerTableRecord
2
ADD_LINE
70
64
62
  -7
  6
CONTINUOUS
0
ENDTAB
0
ENDSEC
0
SECTION
2
ENTITIES
0
LINE
5
3698
8
0-0
6
CONTINUOUS
62
  7
10
1114.324
20
1094.595
30
0.0
11
1224.324
21
1094.595
31
0.0
0
LINE
5
3699
8
0-0
6
CONTINUOUS
62
  7
10
1224.324
20
1094.595
30
0.0
11
1224.324
21
774.595
31
0.0
0
LINE
5
369a
8
0-0
6
CONTINUOUS
62
  7
10
1114.324
20
1094.595
30
0.0
11
1113.452
21
1085.595
31
0.0
0
LINE
5
369b
8
0-0
6
CONTINUOUS
62
  7
10
1113.452
20
1085.595
30
0.0
11
1214.324
21
1085.595
31
0.0
0
LINE
5
369c
8
0-0
6
CONTINUOUS
62
  7
10
1112.581
20
1076.595
30
0.0
11
1214.325
21
1076.595
31
0.0
0
LINE
5
369d
8
0-0
6
CONTINUOUS
62
  7
10
1214.324
20
1094.595
30
0.0
11
1214.324
21
1085.595
31
0.0
0
LINE
5
369e
8
0-0
6
CONTINUOUS
62
  7
10
1112.581
20
1076.595
30
0.0
11
1083.324
21
804.595
31
0.0
0
LINE
5
369f
8
0-0
6
CONTINUOUS
62
  7
10
1214.324
20
809.595
30
0.0
11
1214.529
21
808.710
31
0.0
0
LINE
5
36a0
8
0-0
6
CONTINUOUS
62
  7
10
1214.529
20
808.710
30
0.0
11
1214.750
21
807.843
31
0.0
0
LINE
5
36a1
8
0-0
6
CONTINUOUS
62
  7
10
1214.750
20
807.843
30
0.0
11
1214.987
21
806.993
31
0.0
0
LINE
5
36a2
8
0-0
6
CONTINUOUS
62
  7
10
1214.987
20
806.993
30
0.0
11
1215.240
21
806.159
31
0.0
0
LINE
5
36a3
8
0-0
6
CONTINUOUS
62
  7
10
1215.240
20
806.159
30
0.0
11
1215.507
21
805.340
31
0.0
0
LINE
5
36a4
8
0-0
6
CONTINUOUS
62
  7
10
1215.507
20
805.340
30
0.0
11
1215.789
21
804.536
31
0.0
0
LINE
5
36a5
8
0-0
6
CONTINUOUS
62
  7
10
1215.789
20
804.536
30
0.0
11
1216.084
21
803.745
31
0.0
0
LINE
5
36a6
8
0-0
6
CONTINUOUS
62
  7
10
1216.084
20
803.745
30
0.0
11
1216.390
21
802.969
31
0.0
0
LINE
5
36a7
8
0-0
6
CONTINUOUS
62
  7
10
1216.390
20
802.969
30
0.0
11
1216.707
21
802.208
31
0.0
0
LINE
5
36a8
8
0-0
6
CONTINUOUS
62
  7
10
1216.707
20
802.208
30
0.0
11
1217.032
21
801.460
31
0.0
0
LINE
5
36a9
8
0-0
6
CONTINUOUS
62
  7
10
1217.032
20
801.460
30
0.0
11
1217.366
21
800.728
31
0.0
0
LINE
5
36aa
8
0-0
6
CONTINUOUS
62
  7
10
1217.366
20
800.728
30
0.0
11
1217.705
21
800.011
31
0.0
0
LINE
5
36ab
8
0-0
6
CONTINUOUS
62
  7
10
1217.705
20
800.011
30
0.0
11
1218.050
21
799.310
31
0.0
0
LINE
5
36ac
8
0-0
6
CONTINUOUS
62
  7
10
1218.050
20
799.310
30
0.0
11
1218.399
21
798.625
31
0.0
0
LINE
5
36ad
8
0-0
6
CONTINUOUS
62
  7
10
1218.399
20
798.625
30
0.0
11
1218.750
21
797.958
31
0.0
0
LINE
5
36ae
8
0-0
6
CONTINUOUS
62
  7
10
1218.750
20
797.958
30
0.0
11
1219.103
21
797.308
31
0.0
0
LINE
5
36af
8
0-0
6
CONTINUOUS
62
  7
10
1219.103
20
797.308
30
0.0
11
1219.457
21
796.676
31
0.0
0
LINE
5
36b0
8
0-0
6
CONTINUOUS
62
  7
10
1219.457
20
796.676
30
0.0
11
1219.813
21
796.060
31
0.0
0
LINE
5
36b1
8
0-0
6
CONTINUOUS
62
  7
10
1219.813
20
796.060
30
0.0
11
1220.171
21
795.461
31
0.0
0
LINE
5
36b2
8
0-0
6
CONTINUOUS
62
  7
10
1220.171
20
795.461
30
0.0
11
1220.530
21
794.877
31
0.0
0
LINE
5
36b3
8
0-0
6
CONTINUOUS
62
  7
10
1220.530
20
794.877
30
0.0
11
1220.893
21
794.305
31
0.0
0
LINE
5
36b4
8
0-0
6
CONTINUOUS
62
  7
10
1220.893
20
794.305
30
0.0
11
1221.262
21
793.744
31
0.0
0
LINE
5
36b5
8
0-0
6
CONTINUOUS
62
  7
10
1221.262
20
793.744
30
0.0
11
1221.638
21
793.188
31
0.0
0
LINE
5
36b6
8
0-0
6
CONTINUOUS
62
  7
10
1221.638
20
793.188
30
0.0
11
1222.026
21
792.634
31
0.0
0
LINE
5
36b7
8
0-0
6
CONTINUOUS
62
  7
10
1222.026
20
792.634
30
0.0
11
1222.430
21
792.073
31
0.0
0
LINE
5
36b8
8
0-0
6
CONTINUOUS
62
  7
10
1222.430
20
792.073
30
0.0
11
1222.854
21
791.500
31
0.0
0
LINE
5
36b9
8
0-0
6
CONTINUOUS
62
  7
10
1222.854
20
791.500
30
0.0
11
1223.306
21
790.903
31
0.0
0
LINE
5
36ba
8
0-0
6
CONTINUOUS
62
  7
10
1223.306
20
790.903
30
0.0
11
1223.793
21
790.273
31
0.0
0
LINE
5
36bb
8
0-0
6
CONTINUOUS
62
  7
10
1223.793
20
790.273
30
0.0
11
1224.324
21
789.595
31
0.0
0
LINE
5
36bc
8
0-0
6
CONTINUOUS
62
  7
10
1083.324
20
804.595
30
0.0
11
1215.789
21
804.595
31
0.0
0
LINE
5
36bd
8
0-0
6
CONTINUOUS
62
  7
10
1214.324
20
1076.594
30
0.0
11
1214.324
21
809.595
31
0.0
0
LINE
5
36be
8
0-0
6
CONTINUOUS
62
  7
10
839.189
20
1094.595
30
0.0
11
729.189
21
1094.595
31
0.0
0
LINE
5
36bf
8
0-0
6
CONTINUOUS
62
  7
10
729.189
20
1094.595
30
0.0
11
698.189
21
774.595
31
0.0
0
LINE
5
36c0
8
0-0
6
CONTINUOUS
62
  7
10
839.189
20
1094.595
30
0.0
11
839.189
21
1085.595
31
0.0
0
LINE
5
36c1
8
0-0
6
CONTINUOUS
62
  7
10
839.189
20
1085.595
30
0.0
11
738.364
21
1085.595
31
0.0
0
LINE
5
36c2
8
0-0
6
CONTINUOUS
62
  7
10
839.189
20
1076.595
30
0.0
11
737.492
21
1076.595
31
0.0
0
LINE
5
36c3
8
0-0
6
CONTINUOUS
62
  7
10
739.236
20
1094.595
30
0.0
11
738.364
21
1085.595
31
0.0
0
LINE
5
36c4
8
0-0
6
CONTINUOUS
62
  7
10
1083.324
20
804.595
30
0.0
11
1083.426
21
803.537
31
0.0
0
LINE
5
36c5
8
0-0
6
CONTINUOUS
62
  7
10
1083.426
20
803.537
30
0.0
11
1083.541
21
802.481
31
0.0
0
LINE
5
36c6
8
0-0
6
CONTINUOUS
62
  7
10
1083.541
20
802.481
30
0.0
11
1083.668
21
801.442
31
0.0
0
LINE
5
36c7
8
0-0
6
CONTINUOUS
62
  7
10
1083.668
20
801.442
30
0.0
11
1083.803
21
800.430
31
0.0
0
LINE
5
36c8
8
0-0
6
CONTINUOUS
62
  7
10
1083.803
20
800.430
30
0.0
11
1083.947
21
799.451
31
0.0
0
LINE
5
36c9
8
0-0
6
CONTINUOUS
62
  7
10
1083.947
20
799.451
30
0.0
11
1084.098
21
798.511
31
0.0
0
LINE
5
36ca
8
0-0
6
CONTINUOUS
62
  7
10
1084.098
20
798.511
30
0.0
11
1084.254
21
797.611
31
0.0
0
LINE
5
36cb
8
0-0
6
CONTINUOUS
62
  7
10
1084.254
20
797.611
30
0.0
11
1084.415
21
796.751
31
0.0
0
LINE
5
36cc
8
0-0
6
CONTINUOUS
62
  7
10
1084.415
20
796.751
30
0.0
11
1084.581
21
795.932
31
0.0
0
LINE
5
36cd
8
0-0
6
CONTINUOUS
62
  7
10
1084.581
20
795.932
30
0.0
11
1084.752
21
795.152
31
0.0
0
LINE
5
36ce
8
0-0
6
CONTINUOUS
62
  7
10
1084.752
20
795.152
30
0.0
11
1084.927
21
794.409
31
0.0
0
LINE
5
36cf
8
0-0
6
CONTINUOUS
62
  7
10
1084.927
20
794.409
30
0.0
11
1085.105
21
793.701
31
0.0
0
LINE
5
36d0
8
0-0
6
CONTINUOUS
62
  7
10
1085.105
20
793.701
30
0.0
11
1085.288
21
793.026
31
0.0
0
LINE
5
36d1
8
0-0
6
CONTINUOUS
62
  7
10
1085.288
20
793.026
30
0.0
11
1085.475
21
792.380
31
0.0
0
LINE
5
36d2
8
0-0
6
CONTINUOUS
62
  7
10
1085.475
20
792.380
30
0.0
11
1085.666
21
791.762
31
0.0
0
LINE
5
36d3
8
0-0
6
CONTINUOUS
62
  7
10
1085.666
20
791.762
30
0.0
11
1085.861
21
791.169
31
0.0
0
LINE
5
36d4
8
0-0
6
CONTINUOUS
62
  7
10
1085.861
20
791.169
30
0.0
11
1086.061
21
790.599
31
0.0
0
LINE
5
36d5
8
0-0
6
CONTINUOUS
62
  7
10
1086.061
20
790.599
30
0.0
11
1086.265
21
790.049
31
0.0
0
LINE
5
36d6
8
0-0
6
CONTINUOUS
62
  7
10
1086.265
20
790.049
30
0.0
11
1086.475
21
789.517
31
0.0
0
LINE
5
36d7
8
0-0
6
CONTINUOUS
62
  7
10
1086.475
20
789.517
30
0.0
11
1086.689
21
789.002
31
0.0
0
LINE
5
36d8
8
0-0
6
CONTINUOUS
62
  7
10
1086.689
20
789.002
30
0.0
11
1086.910
21
788.500
31
0.0
0
LINE
5
36d9
8
0-0
6
CONTINUOUS
62
  7
10
1086.910
20
788.500
30
0.0
11
1087.136
21
788.011
31
0.0
0
LINE
5
36da
8
0-0
6
CONTINUOUS
62
  7
10
1087.136
20
788.011
30
0.0
11
1087.369
21
787.533
31
0.0
0
LINE
5
36db
8
0-0
6
CONTINUOUS
62
  7
10
1087.369
20
787.533
30
0.0
11
1087.608
21
787.063
31
0.0
0
LINE
5
36dc
8
0-0
6
CONTINUOUS
62
  7
10
1087.608
20
787.063
30
0.0
11
1087.854
21
786.602
31
0.0
0
LINE
5
36dd
8
0-0
6
CONTINUOUS
62
  7
10
1087.854
20
786.602
30
0.0
11
1088.107
21
786.147
31
0.0
0
LINE
5
36de
8
0-0
6
CONTINUOUS
62
  7
10
1088.107
20
786.147
30
0.0
11
1088.368
21
785.697
31
0.0
0
LINE
5
36df
8
0-0
6
CONTINUOUS
62
  7
10
1088.368
20
785.697
30
0.0
11
1088.636
21
785.251
31
0.0
0
LINE
5
36e0
8
0-0
6
CONTINUOUS
62
  7
10
1088.636
20
785.251
30
0.0
11
1088.911
21
784.808
31
0.0
0
LINE
5
36e1
8
0-0
6
CONTINUOUS
62
  7
10
1088.911
20
784.808
30
0.0
11
1089.194
21
784.367
31
0.0
0
LINE
5
36e2
8
0-0
6
CONTINUOUS
62
  7
10
1089.194
20
784.367
30
0.0
11
1089.484
21
783.929
31
0.0
0
LINE
5
36e3
8
0-0
6
CONTINUOUS
62
  7
10
1089.484
20
783.929
30
0.0
11
1089.782
21
783.492
31
0.0
0
LINE
5
36e4
8
0-0
6
CONTINUOUS
62
  7
10
1089.782
20
783.492
30
0.0
11
1090.088
21
783.056
31
0.0
0
LINE
5
36e5
8
0-0
6
CONTINUOUS
62
  7
10
1090.088
20
783.056
30
0.0
11
1090.401
21
782.620
31
0.0
0
LINE
5
36e6
8
0-0
6
CONTINUOUS
62
  7
10
1090.401
20
782.620
30
0.0
11
1090.722
21
782.186
31
0.0
0
LINE
5
36e7
8
0-0
6
CONTINUOUS
62
  7
10
1090.722
20
782.186
30
0.0
11
1091.049
21
781.752
31
0.0
0
LINE
5
36e8
8
0-0
6
CONTINUOUS
62
  7
10
1091.049
20
781.752
30
0.0
11
1091.384
21
781.318
31
0.0
0
LINE
5
36e9
8
0-0
6
CONTINUOUS
62
  7
10
1091.384
20
781.318
30
0.0
11
1091.727
21
780.886
31
0.0
0
LINE
5
36ea
8
0-0
6
CONTINUOUS
62
  7
10
1091.727
20
780.886
30
0.0
11
1092.076
21
780.454
31
0.0
0
LINE
5
36eb
8
0-0
6
CONTINUOUS
62
  7
10
1092.076
20
780.454
30
0.0
11
1092.434
21
780.024
31
0.0
0
LINE
5
36ec
8
0-0
6
CONTINUOUS
62
  7
10
1092.434
20
780.024
30
0.0
11
1092.799
21
779.596
31
0.0
0
LINE
5
36ed
8
0-0
6
CONTINUOUS
62
  7
10
1092.799
20
779.596
30
0.0
11
1093.172
21
779.169
31
0.0
0
LINE
5
36ee
8
0-0
6
CONTINUOUS
62
  7
10
1093.172
20
779.169
30
0.0
11
1093.554
21
778.746
31
0.0
0
LINE
5
36ef
8
0-0
6
CONTINUOUS
62
  7
10
1093.554
20
778.746
30
0.0
11
1093.944
21
778.325
31
0.0
0
LINE
5
36f0
8
0-0
6
CONTINUOUS
62
  7
10
1093.944
20
778.325
30
0.0
11
1094.345
21
777.908
31
0.0
0
LINE
5
36f1
8
0-0
6
CONTINUOUS
62
  7
10
1094.345
20
777.908
30
0.0
11
1094.755
21
777.496
31
0.0
0
LINE
5
36f2
8
0-0
6
CONTINUOUS
62
  7
10
1094.755
20
777.496
30
0.0
11
1095.174
21
777.089
31
0.0
0
LINE
5
36f3
8
0-0
6
CONTINUOUS
62
  7
10
1095.174
20
777.089
30
0.0
11
1095.604
21
776.690
31
0.0
0
LINE
5
36f4
8
0-0
6
CONTINUOUS
62
  7
10
1095.604
20
776.690
30
0.0
11
1096.043
21
776.299
31
0.0
0
LINE
5
36f5
8
0-0
6
CONTINUOUS
62
  7
10
1096.043
20
776.299
30
0.0
11
1096.490
21
775.920
31
0.0
0
LINE
5
36f6
8
0-0
6
CONTINUOUS
62
  7
10
1096.490
20
775.920
30
0.0
11
1096.945
21
775.555
31
0.0
0
LINE
5
36f7
8
0-0
6
CONTINUOUS
62
  7
10
1096.945
20
775.555
30
0.0
11
1097.405
21
775.209
31
0.0
0
LINE
5
36f8
8
0-0
6
CONTINUOUS
62
  7
10
1097.405
20
775.209
30
0.0
11
1097.867
21
774.887
31
0.0
0
LINE
5
36f9
8
0-0
6
CONTINUOUS
62
  7
10
1097.867
20
774.887
30
0.0
11
1098.324
21
774.595
31
0.0
0
LINE
5
36fa
8
0-0
6
CONTINUOUS
62
  7
10
839.189
20
804.595
30
0.0
11
839.088
21
803.537
31
0.0
0
LINE
5
36fb
8
0-0
6
CONTINUOUS
62
  7
10
839.088
20
803.537
30
0.0
11
838.972
21
802.481
31
0.0
0
LINE
5
36fc
8
0-0
6
CONTINUOUS
62
  7
10
838.972
20
802.481
30
0.0
11
838.846
21
801.442
31
0.0
0
LINE
5
36fd
8
0-0
6
CONTINUOUS
62
  7
10
838.846
20
801.442
30
0.0
11
838.710
21
800.430
31
0.0
0
LINE
5
36fe
8
0-0
6
CONTINUOUS
62
  7
10
838.710
20
800.430
30
0.0
11
838.566
21
799.451
31
0.0
0
LINE
5
36ff
8
0-0
6
CONTINUOUS
62
  7
10
838.566
20
799.451
30
0.0
11
838.416
21
798.511
31
0.0
0
LINE
5
3700
8
0-0
6
CONTINUOUS
62
  7
10
838.416
20
798.511
30
0.0
11
838.260
21
797.611
31
0.0
0
LINE
5
3701
8
0-0
6
CONTINUOUS
62
  7
10
838.260
20
797.611
30
0.0
11
838.098
21
796.751
31
0.0
0
LINE
5
3702
8
0-0
6
CONTINUOUS
62
  7
10
838.098
20
796.751
30
0.0
11
837.932
21
795.932
31
0.0
0
LINE
5
3703
8
0-0
6
CONTINUOUS
62
  7
10
837.932
20
795.932
30
0.0
11
837.762
21
795.152
31
0.0
0
LINE
5
3704
8
0-0
6
CONTINUOUS
62
  7
10
837.762
20
795.152
30
0.0
11
837.587
21
794.409
31
0.0
0
LINE
5
3705
8
0-0
6
CONTINUOUS
62
  7
10
837.587
20
794.409
30
0.0
11
837.408
21
793.701
31
0.0
0
LINE
5
3706
8
0-0
6
CONTINUOUS
62
  7
10
837.408
20
793.701
30
0.0
11
837.225
21
793.026
31
0.0
0
LINE
5
3707
8
0-0
6
CONTINUOUS
62
  7
10
837.225
20
793.026
30
0.0
11
837.039
21
792.380
31
0.0
0
LINE
5
3708
8
0-0
6
CONTINUOUS
62
  7
10
837.039
20
792.380
30
0.0
11
836.848
21
791.762
31
0.0
0
LINE
5
3709
8
0-0
6
CONTINUOUS
62
  7
10
836.848
20
791.762
30
0.0
11
836.653
21
791.169
31
0.0
0
LINE
5
370a
8
0-0
6
CONTINUOUS
62
  7
10
836.653
20
791.169
30
0.0
11
836.453
21
790.599
31
0.0
0
LINE
5
370b
8
0-0
6
CONTINUOUS
62
  7
10
836.453
20
790.599
30
0.0
11
836.248
21
790.049
31
0.0
0
LINE
5
370c
8
0-0
6
CONTINUOUS
62
  7
10
836.248
20
790.049
30
0.0
11
836.039
21
789.517
31
0.0
0
LINE
5
370d
8
0-0
6
CONTINUOUS
62
  7
10
836.039
20
789.517
30
0.0
11
835.824
21
789.002
31
0.0
0
LINE
5
370e
8
0-0
6
CONTINUOUS
62
  7
10
835.824
20
789.002
30
0.0
11
835.604
21
788.500
31
0.0
0
LINE
5
370f
8
0-0
6
CONTINUOUS
62
  7
10
835.604
20
788.500
30
0.0
11
835.377
21
788.011
31
0.0
0
LINE
5
3710
8
0-0
6
CONTINUOUS
62
  7
10
835.377
20
788.011
30
0.0
11
835.145
21
787.533
31
0.0
0
LINE
5
3711
8
0-0
6
CONTINUOUS
62
  7
10
835.145
20
787.533
30
0.0
11
834.905
21
787.063
31
0.0
0
LINE
5
3712
8
0-0
6
CONTINUOUS
62
  7
10
834.905
20
787.063
30
0.0
11
834.659
21
786.602
31
0.0
0
LINE
5
3713
8
0-0
6
CONTINUOUS
62
  7
10
834.659
20
786.602
30
0.0
11
834.406
21
786.147
31
0.0
0
LINE
5
3714
8
0-0
6
CONTINUOUS
62
  7
10
834.406
20
786.147
30
0.0
11
834.146
21
785.697
31
0.0
0
LINE
5
3715
8
0-0
6
CONTINUOUS
62
  7
10
834.146
20
785.697
30
0.0
11
833.878
21
785.251
31
0.0
0
LINE
5
3716
8
0-0
6
CONTINUOUS
62
  7
10
833.878
20
785.251
30
0.0
11
833.603
21
784.808
31
0.0
0
LINE
5
3717
8
0-0
6
CONTINUOUS
62
  7
10
833.603
20
784.808
30
0.0
11
833.320
21
784.367
31
0.0
0
LINE
5
3718
8
0-0
6
CONTINUOUS
62
  7
10
833.320
20
784.367
30
0.0
11
833.029
21
783.929
31
0.0
0
LINE
5
3719
8
0-0
6
CONTINUOUS
62
  7
10
833.029
20
783.929
30
0.0
11
832.731
21
783.492
31
0.0
0
LINE
5
371a
8
0-0
6
CONTINUOUS
62
  7
10
832.731
20
783.492
30
0.0
11
832.425
21
783.056
31
0.0
0
LINE
5
371b
8
0-0
6
CONTINUOUS
62
  7
10
832.425
20
783.056
30
0.0
11
832.112
21
782.620
31
0.0
0
LINE
5
371c
8
0-0
6
CONTINUOUS
62
  7
10
832.112
20
782.620
30
0.0
11
831.792
21
782.186
31
0.0
0
LINE
5
371d
8
0-0
6
CONTINUOUS
62
  7
10
831.792
20
782.186
30
0.0
11
831.464
21
781.752
31
0.0
0
LINE
5
371e
8
0-0
6
CONTINUOUS
62
  7
10
831.464
20
781.752
30
0.0
11
831.129
21
781.318
31
0.0
0
LINE
5
371f
8
0-0
6
CONTINUOUS
62
  7
10
831.129
20
781.318
30
0.0
11
830.787
21
780.886
31
0.0
0
LINE
5
3720
8
0-0
6
CONTINUOUS
62
  7
10
830.787
20
780.886
30
0.0
11
830.437
21
780.454
31
0.0
0
LINE
5
3721
8
0-0
6
CONTINUOUS
62
  7
10
830.437
20
780.454
30
0.0
11
830.080
21
780.024
31
0.0
0
LINE
5
3722
8
0-0
6
CONTINUOUS
62
  7
10
830.080
20
780.024
30
0.0
11
829.715
21
779.596
31
0.0
0
LINE
5
3723
8
0-0
6
CONTINUOUS
62
  7
10
829.715
20
779.596
30
0.0
11
829.341
21
779.169
31
0.0
0
LINE
5
3724
8
0-0
6
CONTINUOUS
62
  7
10
829.341
20
779.169
30
0.0
11
828.960
21
778.746
31
0.0
0
LINE
5
3725
8
0-0
6
CONTINUOUS
62
  7
10
828.960
20
778.746
30
0.0
11
828.569
21
778.325
31
0.0
0
LINE
5
3726
8
0-0
6
CONTINUOUS
62
  7
10
828.569
20
778.325
30
0.0
11
828.169
21
777.908
31
0.0
0
LINE
5
3727
8
0-0
6
CONTINUOUS
62
  7
10
828.169
20
777.908
30
0.0
11
827.759
21
777.496
31
0.0
0
LINE
5
3728
8
0-0
6
CONTINUOUS
62
  7
10
827.759
20
777.496
30
0.0
11
827.340
21
777.089
31
0.0
0
LINE
5
3729
8
0-0
6
CONTINUOUS
62
  7
10
827.340
20
777.089
30
0.0
11
826.910
21
776.690
31
0.0
0
LINE
5
372a
8
0-0
6
CONTINUOUS
62
  7
10
826.910
20
776.690
30
0.0
11
826.471
21
776.299
31
0.0
0
LINE
5
372b
8
0-0
6
CONTINUOUS
62
  7
10
826.471
20
776.299
30
0.0
11
826.023
21
775.920
31
0.0
0
LINE
5
372c
8
0-0
6
CONTINUOUS
62
  7
10
826.023
20
775.920
30
0.0
11
825.568
21
775.555
31
0.0
0
LINE
5
372d
8
0-0
6
CONTINUOUS
62
  7
10
825.568
20
775.555
30
0.0
11
825.108
21
775.209
31
0.0
0
LINE
5
372e
8
0-0
6
CONTINUOUS
62
  7
10
825.108
20
775.209
30
0.0
11
824.647
21
774.887
31
0.0
0
LINE
5
372f
8
0-0
6
CONTINUOUS
62
  7
10
824.647
20
774.887
30
0.0
11
824.189
21
774.595
31
0.0
0
LINE
5
3730
8
0-0
6
CONTINUOUS
62
  7
10
1098.324
20
774.595
30
0.0
11
1224.324
21
774.595
31
0.0
0
LINE
5
3731
8
0-0
6
CONTINUOUS
62
  7
10
698.189
20
774.595
30
0.0
11
824.189
21
774.595
31
0.0
0
LINE
5
3732
8
0-0
6
CONTINUOUS
62
  7
10
839.189
20
1076.595
30
0.0
11
839.189
21
804.595
31
0.0
0
LINE
5
3733
8
0-0
6
CONTINUOUS
62
  7
10
711.627
20
809.595
30
0.0
11
711.366
21
808.886
31
0.0
0
LINE
5
3734
8
0-0
6
CONTINUOUS
62
  7
10
711.366
20
808.886
30
0.0
11
711.099
21
808.191
31
0.0
0
LINE
5
3735
8
0-0
6
CONTINUOUS
62
  7
10
711.099
20
808.191
30
0.0
11
710.822
21
807.505
31
0.0
0
LINE
5
3736
8
0-0
6
CONTINUOUS
62
  7
10
710.822
20
807.505
30
0.0
11
710.535
21
806.825
31
0.0
0
LINE
5
3737
8
0-0
6
CONTINUOUS
62
  7
10
710.535
20
806.825
30
0.0
11
710.237
21
806.148
31
0.0
0
LINE
5
3738
8
0-0
6
CONTINUOUS
62
  7
10
710.237
20
806.148
30
0.0
11
709.926
21
805.473
31
0.0
0
LINE
5
3739
8
0-0
6
CONTINUOUS
62
  7
10
709.926
20
805.473
30
0.0
11
709.602
21
804.798
31
0.0
0
LINE
5
373a
8
0-0
6
CONTINUOUS
62
  7
10
709.602
20
804.798
30
0.0
11
709.265
21
804.122
31
0.0
0
LINE
5
373b
8
0-0
6
CONTINUOUS
62
  7
10
709.265
20
804.122
30
0.0
11
708.916
21
803.445
31
0.0
0
LINE
5
373c
8
0-0
6
CONTINUOUS
62
  7
10
708.916
20
803.445
30
0.0
11
708.555
21
802.766
31
0.0
0
LINE
5
373d
8
0-0
6
CONTINUOUS
62
  7
10
708.555
20
802.766
30
0.0
11
708.182
21
802.085
31
0.0
0
LINE
5
373e
8
0-0
6
CONTINUOUS
62
  7
10
708.182
20
802.085
30
0.0
11
707.798
21
801.402
31
0.0
0
LINE
5
373f
8
0-0
6
CONTINUOUS
62
  7
10
707.798
20
801.402
30
0.0
11
707.403
21
800.719
31
0.0
0
LINE
5
3740
8
0-0
6
CONTINUOUS
62
  7
10
707.403
20
800.719
30
0.0
11
706.998
21
800.035
31
0.0
0
LINE
5
3741
8
0-0
6
CONTINUOUS
62
  7
10
706.998
20
800.035
30
0.0
11
706.583
21
799.350
31
0.0
0
LINE
5
3742
8
0-0
6
CONTINUOUS
62
  7
10
706.583
20
799.350
30
0.0
11
706.159
21
798.665
31
0.0
0
LINE
5
3743
8
0-0
6
CONTINUOUS
62
  7
10
706.159
20
798.665
30
0.0
11
705.726
21
797.980
31
0.0
0
LINE
5
3744
8
0-0
6
CONTINUOUS
62
  7
10
705.726
20
797.980
30
0.0
11
705.284
21
797.295
31
0.0
0
LINE
5
3745
8
0-0
6
CONTINUOUS
62
  7
10
705.284
20
797.295
30
0.0
11
704.833
21
796.611
31
0.0
0
LINE
5
3746
8
0-0
6
CONTINUOUS
62
  7
10
704.833
20
796.611
30
0.0
11
704.373
21
795.926
31
0.0
0
LINE
5
3747
8
0-0
6
CONTINUOUS
62
  7
10
704.373
20
795.926
30
0.0
11
703.903
21
795.240
31
0.0
0
LINE
5
3748
8
0-0
6
CONTINUOUS
62
  7
10
703.903
20
795.240
30
0.0
11
703.423
21
794.553
31
0.0
0
LINE
5
3749
8
0-0
6
CONTINUOUS
62
  7
10
703.423
20
794.553
30
0.0
11
702.931
21
793.864
31
0.0
0
LINE
5
374a
8
0-0
6
CONTINUOUS
62
  7
10
702.931
20
793.864
30
0.0
11
702.426
21
793.171
31
0.0
0
LINE
5
374b
8
0-0
6
CONTINUOUS
62
  7
10
702.426
20
793.171
30
0.0
11
701.906
21
792.474
31
0.0
0
LINE
5
374c
8
0-0
6
CONTINUOUS
62
  7
10
701.906
20
792.474
30
0.0
11
701.371
21
791.769
31
0.0
0
LINE
5
374d
8
0-0
6
CONTINUOUS
62
  7
10
701.371
20
791.769
30
0.0
11
700.817
21
791.056
31
0.0
0
LINE
5
374e
8
0-0
6
CONTINUOUS
62
  7
10
700.817
20
791.056
30
0.0
11
700.241
21
790.332
31
0.0
0
LINE
5
374f
8
0-0
6
CONTINUOUS
62
  7
10
700.241
20
790.332
30
0.0
11
699.642
21
789.595
31
0.0
0
LINE
5
3750
8
0-0
6
CONTINUOUS
62
  7
10
709.602
20
804.595
30
0.0
11
839.189
21
804.595
31
0.0
0
LINE
5
3751
8
0-0
6
CONTINUOUS
62
  7
10
737.492
20
1076.595
30
0.0
11
711.627
21
809.595
31
0.0
0
LINE
5
3752
8
0-2
6
CONTINUOUS
62
  7
10
729.189
20
1277.027
30
0.0
11
839.189
21
1277.027
31
0.0
0
LINE
5
3753
8
0-2
6
CONTINUOUS
62
  7
10
729.189
20
1135.135
30
0.0
11
729.189
21
1277.027
31
0.0
0
LINE
5
3754
8
0-2
6
CONTINUOUS
62
  7
10
839.189
20
1135.135
30
0.0
11
839.189
21
1277.027
31
0.0
0
LINE
5
3755
8
0-2
6
CONTINUOUS
62
  7
10
1114.324
20
1277.027
30
0.0
11
1224.324
21
1277.027
31
0.0
0
LINE
5
3756
8
0-2
6
CONTINUOUS
62
  7
10
1114.324
20
1135.135
30
0.0
11
1114.324
21
1277.027
31
0.0
0
LINE
5
3757
8
0-2
6
CONTINUOUS
62
  7
10
1224.324
20
1135.135
30
0.0
11
1224.324
21
1277.027
31
0.0
0
LINE
5
3758
8
0-2
6
CONTINUOUS
62
  7
10
698.189
20
652.703
30
0.0
11
839.189
21
652.703
31
0.0
0
LINE
5
3759
8
0-2
6
CONTINUOUS
62
  7
10
698.189
20
733.784
30
0.0
11
698.189
21
652.703
31
0.0
0
LINE
5
375a
8
0-2
6
CONTINUOUS
62
  7
10
839.189
20
733.784
30
0.0
11
839.189
21
652.703
31
0.0
0
LINE
5
375b
8
0-2
6
CONTINUOUS
62
  7
10
1083.324
20
652.703
30
0.0
11
1224.324
21
652.703
31
0.0
0
LINE
5
375c
8
0-2
6
CONTINUOUS
62
  7
10
1083.324
20
733.784
30
0.0
11
1083.324
21
652.703
31
0.0
0
LINE
5
375d
8
0-2
6
CONTINUOUS
62
  7
10
1224.324
20
733.784
30
0.0
11
1224.324
21
652.703
31
0.0
0
LINE
5
375e
8
0-0
6
CONTINUOUS
62
  7
10
1108.324
20
392.703
30
0.0
11
1108.324
21
382.703
31
0.0
0
LINE
5
375f
8
0-0
6
CONTINUOUS
62
  7
10
1083.324
20
392.703
30
0.0
11
1098.324
21
382.703
31
0.0
0
LINE
5
3760
8
0-0
6
CONTINUOUS
62
  7
10
1108.324
20
382.703
30
0.0
11
1098.324
21
382.703
31
0.0
0
LINE
5
3761
8
0-0
6
CONTINUOUS
62
  7
10
1224.324
20
508.703
30
0.0
11
1214.324
21
523.703
31
0.0
0
LINE
5
3762
8
0-0
6
CONTINUOUS
62
  7
10
1224.324
20
508.703
30
0.0
11
1224.324
21
498.703
31
0.0
0
LINE
5
3763
8
0-0
6
CONTINUOUS
62
  7
10
1214.324
20
498.703
30
0.0
11
1224.324
21
498.703
31
0.0
0
LINE
5
3764
8
0-0
6
CONTINUOUS
62
  7
10
1083.324
20
503.703
30
0.0
11
1083.324
21
392.703
31
0.0
0
LINE
5
3765
8
0-0
6
CONTINUOUS
62
  7
10
1103.324
20
523.703
30
0.0
11
1214.324
21
523.703
31
0.0
0
LINE
5
3766
8
0-0
6
CONTINUOUS
62
  7
10
1098.324
20
469.812
30
0.0
11
1098.324
21
392.703
31
0.0
0
LINE
5
3767
8
0-0
6
CONTINUOUS
62
  7
10
1137.215
20
508.703
30
0.0
11
1214.324
21
508.703
31
0.0
0
LINE
5
3768
8
0-0
6
CONTINUOUS
62
  7
10
1098.324
20
392.703
30
0.0
11
1098.324
21
382.703
31
0.0
0
LINE
5
3769
8
0-0
6
CONTINUOUS
62
  7
10
1214.324
20
508.703
30
0.0
11
1224.324
21
508.703
31
0.0
0
LINE
5
376a
8
0-2
6
CONTINUOUS
62
  7
10
1083.324
20
239.189
30
0.0
11
1224.324
21
239.189
31
0.0
0
LINE
5
376b
8
0-2
6
CONTINUOUS
62
  7
10
1083.324
20
336.487
30
0.0
11
1083.324
21
239.189
31
0.0
0
LINE
5
376c
8
0-2
6
CONTINUOUS
62
  7
10
1224.324
20
336.487
30
0.0
11
1224.324
21
239.189
31
0.0
0
LINE
5
376d
8
0-2
6
CONTINUOUS
62
  7
10
1324.087
20
523.703
30
0.0
11
1324.087
21
382.703
31
0.0
0
LINE
5
376e
8
0-2
6
CONTINUOUS
62
  7
10
1266.563
20
523.703
30
0.0
11
1324.087
21
523.703
31
0.0
0
LINE
5
376f
8
0-2
6
CONTINUOUS
62
  7
10
1266.563
20
382.703
30
0.0
11
1324.087
21
382.703
31
0.0
0
LINE
5
3770
8
0-2
6
CONTINUOUS
62
  7
10
1324.087
20
1094.595
30
0.0
11
1324.087
21
774.595
31
0.0
0
LINE
5
3771
8
0-2
6
CONTINUOUS
62
  7
10
1266.563
20
1094.595
30
0.0
11
1324.087
21
1094.595
31
0.0
0
LINE
5
3772
8
0-2
6
CONTINUOUS
62
  7
10
1266.563
20
774.595
30
0.0
11
1324.087
21
774.595
31
0.0
0
LINE
5
3773
8
ADD_LINE
6
HIDDEN
62
  3
10
1224.324
20
498.703
30
0.0
11
1232.088
21
498.703
31
0.0
0
LINE
5
3774
8
ADD_LINE
6
HIDDEN
62
  3
10
1224.324
20
498.703
30
0.0
11
1224.324
21
490.457
31
0.0
0
ARC
5
3775
8
0-0
6
CONTINUOUS
62
  7
10
1111.638
20
1081.095
30
0.0
40
6.586
50
316.900024
51
43.100769
0
ARC
5
3776
8
0-0
6
CONTINUOUS
62
  7
10
1213.630
20
1081.095
30
0.0
40
4.553
50
278.777405
51
81.222824
0
CIRCLE
5
3777
8
0-0
6
CONTINUOUS
62
  7
10
1179.324
20
1004.595
30
0.0
40
3.000
0
CIRCLE
5
3778
8
0-0
6
CONTINUOUS
62
  7
10
1174.324
20
884.595
30
0.0
40
3.000
0
ARC
5
3779
8
0-0
6
CONTINUOUS
62
  7
10
841.884
20
1081.095
30
0.0
40
7.258
50
141.682617
51
218.316605
0
ARC
5
377a
8
0-0
6
CONTINUOUS
62
  7
10
741.094
20
1080.788
30
0.0
40
5.528
50
119.596085
51
229.336533
0
CIRCLE
5
377b
8
0-0
6
CONTINUOUS
62
  7
10
765.681
20
1004.595
30
0.0
40
3.000
0
CIRCLE
5
377c
8
0-0
6
CONTINUOUS
62
  7
10
759.080
20
884.595
30
0.0
40
3.000
0
ARC
5
377d
8
0-0
6
CONTINUOUS
62
  7
10
1103.733
20
503.294
30
0.0
40
20.413
50
91.146759
51
178.853424
0
ARC
5
377e
8
0-0
6
CONTINUOUS
62
  7
10
1137.409
20
469.619
30
0.0
40
39.085
50
90.283478
51
179.716614
0
ARC
5
377f
8
0-0
6
CONTINUOUS
62
  7
10
1265.771
20
341.256
30
0.0
40
165.639
50
108.095123
51
161.904938
0
CIRCLE
5
3780
8
ADD_LINE
6
HIDDEN
62
  3
10
1224.324
20
498.703
30
0.0
40
3.000
0
TEXT
5
3781
100
AcDbEntity
8
0-2
62
7
100
AcDbText
10
774.814
20
1279.527
30
0.0
40
9.750
41
0.800
50
0.000
1
110
100
AcDbText
0
TEXT
5
3782
100
AcDbEntity
8
0-2
62
7
100
AcDbText
10
1159.949
20
1279.527
30
0.0
40
9.750
41
0.800
50
0.000
1
110
100
AcDbText
0
TEXT
5
3783
100
AcDbEntity
8
0-2
62
7
100
AcDbText
10
759.314
20
655.203
30
0.0
40
9.750
41
0.800
50
0.000
1
141
100
AcDbText
0
TEXT
5
3784
100
AcDbEntity
8
0-2
62
7
100
AcDbText
10
1144.449
20
655.203
30
0.0
40
9.750
41
0.800
50
0.000
1
141
100
AcDbText
0
TEXT
5
3785
100
AcDbEntity
8
0-2
62
7
100
AcDbText
10
1144.449
20
241.689
30
0.0
40
9.750
41
0.800
50
0.000
1
141
100
AcDbText
0
TEXT
5
3786
100
AcDbEntity
8
0-2
62
7
100
AcDbText
10
1321.587
20
443.828
30
0.0
40
9.750
41
0.800
50
90.000
1
141
100
AcDbText
0
TEXT
5
3787
100
AcDbEntity
8
0-2
62
7
100
AcDbText
10
1321.587
20
925.220
30
0.0
40
9.750
41
0.800
50
90.000
1
320
100
AcDbText
0
POINT
5
3788
8
0-2
62
  7
10
729.189
20
1277.027
30
0.0
0
POINT
5
3789
8
0-2
62
  7
10
839.189
20
1277.027
30
0.0
0
POINT
5
378a
8
0-2
62
  7
10
1114.324
20
1277.027
30
0.0
0
POINT
5
378b
8
0-2
62
  7
10
1224.324
20
1277.027
30
0.0
0
POINT
5
378c
8
0-2
62
  7
10
698.189
20
652.703
30
0.0
0
POINT
5
378d
8
0-2
62
  7
10
839.189
20
652.703
30
0.0
0
POINT
5
378e
8
0-2
62
  7
10
1083.324
20
652.703
30
0.0
0
POINT
5
378f
8
0-2
62
  7
10
1224.324
20
652.703
30
0.0
0
POINT
5
3790
8
0-2
62
  7
10
1083.324
20
239.189
30
0.0
0
POINT
5
3791
8
0-2
62
  7
10
1224.324
20
239.189
30
0.0
0
POINT
5
3792
8
0-2
62
  7
10
1324.087
20
523.703
30
0.0
0
POINT
5
3793
8
0-2
62
  7
10
1324.087
20
382.703
30
0.0
0
POINT
5
3794
8
0-2
62
  7
10
1324.087
20
1094.595
30
0.0
0
POINT
5
3795
8
0-2
62
  7
10
1324.087
20
774.595
30
0.0
0
ENDSEC
0
EOF
