0
SECTION
2
HEADER
  9
$EXTMIN
10
0
20
0
30
0
  9
$EXTMAX
10
1435.135
20
1210.608
30
0
  9
$LTSCALE
40
5.000
  9
$DIMSCALE
40
5.000
  9
$PDMODE
70
0
  9
$PDSIZE
40
40
0
ENDSEC
0
SECTION
2
TABLES
0
TABLE
2
LTYPE
70
9
0
LTYPE
5
1f4
2
CONTINUOUS
70
0
3
実線
72
65
73
0
40
0.0
0
LTYPE
5
1f5
2
DOT
70
0
3
--  --  --  --  --  --  --  --     
72
65
73
2
40
5.000
49
1.000
49
-4.000
0
LTYPE
5
1f6
2
DASHED
70
0
3
----    ----    ----    ----    
72
65
73
2
40
5.000
49
2.000
49
-3.000
0
LTYPE
5
1f7
2
DASHED2
70
0
3
------  ------  ------  ------ 
72
65
73
2
40
10.000
49
4.000
49
-6.000
0
LTYPE
5
1f8
2
CENTER
70
0
3
----- - ----- - ----- - ----- - 
72
65
73
4
40
9.000
49
6.000
49
-1.000
49
1.000
49
-1.000
0
LTYPE
5
1f9
2
CENTER2
70
0
3
----------  --  ----------  -- 
72
65
73
4
40
18.000
49
12.000
49
-2.000
49
2.000
49
-2.000
0
LTYPE
5
1fa
2
PHANTOM
70
0
3
--- - - --- - - --- - - --- - -
72
65
73
6
40
10.000
49
5.000
49
-1.000
49
1.000
49
-1.000
49
1.000
49
-1.000
0
LTYPE
5
1fb
2
PHANTOM2
70
0
3
--------  -  -  --------  -  -
72
65
73
6
40
16.000
49
6.000
49
-2.000
49
2.000
49
-2.000
49
2.000
49
-2.000
0
LTYPE
5
1fc
2
HIDDEN
70
0
3
-   -   -   -   -   -   -   -   
72
65
73
2
40
2.500
49
0.500
49
-2.000
0
ENDTAB
0
TABLE
2
STYLE
70
1
0
STYLE
5
1fd
100
AcDbSymbolTableRecord
100
AcDbTextStyleTableRecord
2
STANDARD
70
0
40
0.0
41
1.0
50
0.0
71
0
42
0.0
3
txt.shx
4
extfont.shx
0
STYLE
5
1fe
100
AcDbSymbolTableRecord
100
AcDbTextStyleTableRecord
2
TATEGAKI
70
4
40
0.0
41
1.0
50
0.0
71
0
42
0.0
3
txt.shx
4
extfont.shx
0
STYLE
5
1ff
100
AcDbSymbolTableRecord
100
AcDbTextStyleTableRecord
2
MT
70
0
40
0.0
41
1.0
50
0.0
71
0
42
0.0
3
MS Mincho
4

0
STYLE
5
200
100
AcDbSymbolTableRecord
100
AcDbTextStyleTableRecord
2
TMT
70
4
40
0.0
41
1.0
50
0.0
71
0
42
0.0
3
@MS Mincho
4

0
ENDTAB
0
TABLE
2
LAYER
5
3eb8
100
AcDbSymbolTable
70
10
0
LAYER
5
3eb9
100
AcDbSymbolTableRecord
100
AcDbLayerTableRecord
2
0
70
64
62
  7
  6
CONTINUOUS
0
LAYER
5
3eba
100
AcDbSymbolTableRecord
100
AcDbLayerTableRecord
2
0-0
70
64
62
  7
  6
CONTINUOUS
0
LAYER
5
3ebb
100
AcDbSymbolTableRecord
100
AcDbLayerTableRecord
2
0-1
70
64
62
  7
  6
CONTINUOUS
0
LAYER
5
3ebc
100
AcDbSymbolTableRecord
100
AcDbLayerTableRecord
2
0-2
70
64
62
  7
  6
CONTINUOUS
0
LAYER
5
3ebd
100
AcDbSymbolTableRecord
100
AcDbLayerTableRecord
2
ADD_LINE
70
64
62
  -7
  6
CONTINUOUS
0
ENDTAB
0
ENDSEC
0
SECTION
2
ENTITIES
0
LINE
5
3ebe
8
0-0
6
CONTINUOUS
62
  7
10
569.324
20
1023.878
30
0.0
11
474.324
21
928.378
31
0.0
0
LINE
5
3ebf
8
0-0
6
CONTINUOUS
62
  7
10
474.324
20
928.378
30
0.0
11
569.324
21
832.878
31
0.0
0
LINE
5
3ec0
8
0-0
6
CONTINUOUS
62
  7
10
569.324
20
1023.878
30
0.0
11
979.324
21
1023.878
31
0.0
0
LINE
5
3ec1
8
0-0
6
CONTINUOUS
62
  7
10
569.324
20
832.878
30
0.0
11
979.324
21
832.878
31
0.0
0
LINE
5
3ec2
8
0-0
6
CONTINUOUS
62
  7
10
597.624
20
1016.878
30
0.0
11
509.587
21
928.378
31
0.0
0
LINE
5
3ec3
8
0-0
6
CONTINUOUS
62
  7
10
509.587
20
928.378
30
0.0
11
597.624
21
839.878
31
0.0
0
LINE
5
3ec4
8
0-0
6
CONTINUOUS
62
  7
10
597.624
20
1016.878
30
0.0
11
973.460
21
1016.878
31
0.0
0
LINE
5
3ec5
8
0-0
6
CONTINUOUS
62
  7
10
597.624
20
839.878
30
0.0
11
973.460
21
839.878
31
0.0
0
LINE
5
3ec6
8
0-0
6
CONTINUOUS
62
  7
10
889.163
20
923.378
30
0.0
11
959.111
21
839.878
31
0.0
0
LINE
5
3ec7
8
0-0
6
CONTINUOUS
62
  7
10
896.990
20
923.378
30
0.0
11
966.938
21
839.878
31
0.0
0
LINE
5
3ec8
8
0-0
6
CONTINUOUS
62
  7
10
903.513
20
923.378
30
0.0
11
979.324
21
832.878
31
0.0
0
LINE
5
3ec9
8
0-0
6
CONTINUOUS
62
  7
10
903.512
20
933.378
30
0.0
11
979.324
21
1023.878
31
0.0
0
LINE
5
3eca
8
0-0
6
CONTINUOUS
62
  7
10
896.990
20
933.378
30
0.0
11
966.938
21
1016.878
31
0.0
0
LINE
5
3ecb
8
0-0
6
CONTINUOUS
62
  7
10
889.163
20
933.378
30
0.0
11
959.111
21
1016.878
31
0.0
0
LINE
5
3ecc
8
ADD_LINE
6
HIDDEN
62
  3
10
821.299
20
928.378
30
0.0
11
1435.135
21
928.378
31
0.0
0
LINE
5
3ecd
8
0-0
6
CONTINUOUS
62
  7
10
819.536
20
928.378
30
0.0
11
901.536
21
928.378
31
0.0
0
LINE
5
3ece
8
ADD_LINE
6
HIDDEN
62
  3
10
263.514
20
928.378
30
0.0
11
692.583
21
928.378
31
0.0
0
LINE
5
3ecf
8
ADD_LINE
6
HIDDEN
62
  3
10
696.094
20
928.378
30
0.0
11
801.299
21
928.378
31
0.0
0
LINE
5
3ed0
8
0-0
6
CONTINUOUS
62
  7
10
474.324
20
928.378
30
0.0
11
720.036
21
928.378
31
0.0
0
LINE
5
3ed1
8
0-0
6
CONTINUOUS
62
  7
10
726.037
20
928.378
30
0.0
11
813.536
21
928.378
31
0.0
0
LINE
5
3ed2
8
0-0
6
CONTINUOUS
62
  7
10
474.324
20
499.324
30
0.0
11
569.324
21
464.324
31
0.0
0
LINE
5
3ed3
8
0-0
6
CONTINUOUS
62
  7
10
901.536
20
527.324
30
0.0
11
979.324
21
491.324
31
0.0
0
LINE
5
3ed4
8
0-0
6
CONTINUOUS
62
  7
10
602.324
20
474.324
30
0.0
11
979.324
21
474.324
31
0.0
0
LINE
5
3ed5
8
0-0
6
CONTINUOUS
62
  7
10
979.324
20
491.324
30
0.0
11
979.324
21
474.324
31
0.0
0
LINE
5
3ed6
8
0-0
6
CONTINUOUS
62
  7
10
569.324
20
464.324
30
0.0
11
602.324
21
464.324
31
0.0
0
LINE
5
3ed7
8
0-0
6
CONTINUOUS
62
  7
10
602.324
20
474.324
30
0.0
11
602.324
21
464.324
31
0.0
0
LINE
5
3ed8
8
0-0
6
CONTINUOUS
62
  7
10
477.467
20
514.582
30
0.0
11
508.430
21
526.967
31
0.0
0
LINE
5
3ed9
8
0-0
6
CONTINUOUS
62
  7
10
474.324
20
509.939
30
0.0
11
474.324
21
499.324
31
0.0
0
LINE
5
3eda
8
0-0
6
CONTINUOUS
62
  7
10
569.324
20
478.324
30
0.0
11
475.345
21
512.967
31
0.0
0
LINE
5
3edb
8
0-0
6
CONTINUOUS
62
  7
10
593.924
20
491.324
30
0.0
11
979.324
21
491.324
31
0.0
0
LINE
5
3edc
8
0-0
6
CONTINUOUS
62
  7
10
591.488
20
490.691
30
0.0
11
569.324
21
478.324
31
0.0
0
LINE
5
3edd
8
0-0
6
CONTINUOUS
62
  7
10
508.430
20
526.967
30
0.0
11
593.924
21
491.324
31
0.0
0
LINE
5
3ede
8
0-0
6
CONTINUOUS
62
  7
10
510.287
20
527.324
30
0.0
11
877.992
21
527.324
31
0.0
0
LINE
5
3edf
8
0-0
6
CONTINUOUS
62
  7
10
877.992
20
527.324
30
0.0
11
887.251
21
527.324
31
0.0
0
LINE
5
3ee0
8
0-0
6
CONTINUOUS
62
  7
10
894.394
20
527.324
30
0.0
11
901.536
21
527.324
31
0.0
0
LINE
5
3ee1
8
0-0
6
CONTINUOUS
62
  7
10
890.111
20
526.001
30
0.0
11
892.947
21
526.001
31
0.0
0
LINE
5
3ee2
8
0-0
6
CONTINUOUS
62
  7
10
959.603
20
493.840
30
0.0
11
960.269
21
493.694
31
0.0
0
LINE
5
3ee3
8
0-0
6
CONTINUOUS
62
  7
10
960.269
20
493.694
30
0.0
11
960.919
21
493.561
31
0.0
0
LINE
5
3ee4
8
0-0
6
CONTINUOUS
62
  7
10
960.919
20
493.561
30
0.0
11
961.550
21
493.441
31
0.0
0
LINE
5
3ee5
8
0-0
6
CONTINUOUS
62
  7
10
961.550
20
493.441
30
0.0
11
962.157
21
493.337
31
0.0
0
LINE
5
3ee6
8
0-0
6
CONTINUOUS
62
  7
10
962.157
20
493.337
30
0.0
11
962.739
21
493.250
31
0.0
0
LINE
5
3ee7
8
0-0
6
CONTINUOUS
62
  7
10
962.739
20
493.250
30
0.0
11
963.291
21
493.180
31
0.0
0
LINE
5
3ee8
8
0-0
6
CONTINUOUS
62
  7
10
963.291
20
493.180
30
0.0
11
963.811
21
493.127
31
0.0
0
LINE
5
3ee9
8
0-0
6
CONTINUOUS
62
  7
10
963.811
20
493.127
30
0.0
11
964.297
21
493.094
31
0.0
0
LINE
5
3eea
8
0-0
6
CONTINUOUS
62
  7
10
964.297
20
493.094
30
0.0
11
964.745
21
493.078
31
0.0
0
LINE
5
3eeb
8
0-0
6
CONTINUOUS
62
  7
10
964.745
20
493.078
30
0.0
11
965.154
21
493.082
31
0.0
0
LINE
5
3eec
8
0-0
6
CONTINUOUS
62
  7
10
965.154
20
493.082
30
0.0
11
965.521
21
493.104
31
0.0
0
LINE
5
3eed
8
0-0
6
CONTINUOUS
62
  7
10
965.521
20
493.104
30
0.0
11
965.844
21
493.143
31
0.0
0
LINE
5
3eee
8
0-0
6
CONTINUOUS
62
  7
10
965.844
20
493.143
30
0.0
11
966.122
21
493.200
31
0.0
0
LINE
5
3eef
8
0-0
6
CONTINUOUS
62
  7
10
966.122
20
493.200
30
0.0
11
966.352
21
493.274
31
0.0
0
LINE
5
3ef0
8
0-0
6
CONTINUOUS
62
  7
10
966.352
20
493.274
30
0.0
11
966.533
21
493.362
31
0.0
0
LINE
5
3ef1
8
0-0
6
CONTINUOUS
62
  7
10
966.533
20
493.362
30
0.0
11
966.665
21
493.465
31
0.0
0
LINE
5
3ef2
8
0-0
6
CONTINUOUS
62
  7
10
966.665
20
493.465
30
0.0
11
966.744
21
493.580
31
0.0
0
LINE
5
3ef3
8
0-0
6
CONTINUOUS
62
  7
10
966.744
20
493.580
30
0.0
11
966.771
21
493.706
31
0.0
0
LINE
5
3ef4
8
0-0
6
CONTINUOUS
62
  7
10
966.771
20
493.706
30
0.0
11
966.745
21
493.840
31
0.0
0
LINE
5
3ef5
8
0-0
6
CONTINUOUS
62
  7
10
894.394
20
527.324
30
0.0
11
966.745
21
493.840
31
0.0
0
LINE
5
3ef6
8
0-0
6
CONTINUOUS
62
  7
10
887.251
20
527.324
30
0.0
11
959.603
21
493.840
31
0.0
0
LINE
5
3ef7
8
0-0
6
CONTINUOUS
62
  7
10
1296.514
20
1023.878
30
0.0
11
1260.514
21
928.378
31
0.0
0
LINE
5
3ef8
8
0-0
6
CONTINUOUS
62
  7
10
1260.514
20
928.378
30
0.0
11
1296.514
21
832.878
31
0.0
0
LINE
5
3ef9
8
0-0
6
CONTINUOUS
62
  7
10
1308.514
20
848.878
30
0.0
11
1313.514
21
832.878
31
0.0
0
LINE
5
3efa
8
0-0
6
CONTINUOUS
62
  7
10
1306.513
20
848.878
30
0.0
11
1308.514
21
848.878
31
0.0
0
LINE
5
3efb
8
0-0
6
CONTINUOUS
62
  7
10
1260.514
20
928.378
30
0.0
11
1296.514
21
1023.878
31
0.0
0
LINE
5
3efc
8
0-0
6
CONTINUOUS
62
  7
10
1308.514
20
1007.878
30
0.0
11
1313.514
21
1023.878
31
0.0
0
LINE
5
3efd
8
0-0
6
CONTINUOUS
62
  7
10
1306.513
20
1007.878
30
0.0
11
1308.514
21
1007.878
31
0.0
0
LINE
5
3efe
8
0-0
6
CONTINUOUS
62
  7
10
1296.514
20
1023.878
30
0.0
11
1313.514
21
1023.878
31
0.0
0
LINE
5
3eff
8
0-0
6
CONTINUOUS
62
  7
10
1296.514
20
832.878
30
0.0
11
1313.514
21
832.878
31
0.0
0
LINE
5
3f00
8
0-0
6
CONTINUOUS
62
  7
10
1273.514
20
928.378
30
0.0
11
1282.938
21
953.378
31
0.0
0
LINE
5
3f01
8
0-0
6
CONTINUOUS
62
  7
10
1282.938
20
953.378
30
0.0
11
1285.968
21
953.378
31
0.0
0
LINE
5
3f02
8
0-0
6
CONTINUOUS
62
  7
10
1285.968
20
953.378
30
0.0
11
1306.513
21
1007.878
31
0.0
0
LINE
5
3f03
8
0-0
6
CONTINUOUS
62
  7
10
1285.968
20
903.378
30
0.0
11
1306.513
21
848.878
31
0.0
0
LINE
5
3f04
8
0-0
6
CONTINUOUS
62
  7
10
1282.938
20
903.378
30
0.0
11
1285.968
21
903.378
31
0.0
0
LINE
5
3f05
8
0-0
6
CONTINUOUS
62
  7
10
1273.514
20
928.378
30
0.0
11
1282.938
21
903.378
31
0.0
0
LINE
5
3f06
8
0-2
6
CONTINUOUS
62
  7
10
474.324
20
1208.108
30
0.0
11
979.324
21
1208.108
31
0.0
0
LINE
5
3f07
8
0-2
6
CONTINUOUS
62
  7
10
474.324
20
1070.270
30
0.0
11
474.324
21
1208.108
31
0.0
0
LINE
5
3f08
8
0-2
6
CONTINUOUS
62
  7
10
979.324
20
1070.270
30
0.0
11
979.324
21
1208.108
31
0.0
0
LINE
5
3f09
8
0-2
6
CONTINUOUS
62
  7
10
1260.514
20
1208.108
30
0.0
11
1313.514
21
1208.108
31
0.0
0
LINE
5
3f0a
8
0-2
6
CONTINUOUS
62
  7
10
1260.514
20
1070.270
30
0.0
11
1260.514
21
1208.108
31
0.0
0
LINE
5
3f0b
8
0-2
6
CONTINUOUS
62
  7
10
1313.514
20
1070.270
30
0.0
11
1313.514
21
1208.108
31
0.0
0
LINE
5
3f0c
8
0-0
6
CONTINUOUS
62
  7
10
569.324
20
478.324
30
0.0
11
569.324
21
464.324
31
0.0
0
LINE
5
3f0d
8
0-2
6
CONTINUOUS
62
  7
10
979.324
20
287.838
30
0.0
11
602.324
21
287.838
31
0.0
0
LINE
5
3f0e
8
0-2
6
CONTINUOUS
62
  7
10
979.324
20
381.081
30
0.0
11
979.324
21
287.838
31
0.0
0
LINE
5
3f0f
8
0-2
6
CONTINUOUS
62
  7
10
602.324
20
381.081
30
0.0
11
602.324
21
287.838
31
0.0
0
LINE
5
3f10
8
0-2
6
CONTINUOUS
62
  7
10
474.324
20
287.838
30
0.0
11
602.324
21
287.838
31
0.0
0
LINE
5
3f11
8
0-2
6
CONTINUOUS
62
  7
10
474.324
20
381.081
30
0.0
11
474.324
21
287.838
31
0.0
0
LINE
5
3f12
8
0-2
6
CONTINUOUS
62
  7
10
602.324
20
381.081
30
0.0
11
602.324
21
287.838
31
0.0
0
LINE
5
3f13
8
0-2
6
CONTINUOUS
62
  7
10
1106.757
20
1023.878
30
0.0
11
1106.757
21
832.878
31
0.0
0
LINE
5
3f14
8
0-2
6
CONTINUOUS
62
  7
10
1037.838
20
1023.878
30
0.0
11
1106.757
21
1023.878
31
0.0
0
LINE
5
3f15
8
0-2
6
CONTINUOUS
62
  7
10
1037.838
20
832.878
30
0.0
11
1106.757
21
832.878
31
0.0
0
LINE
5
3f16
8
0-2
6
CONTINUOUS
62
  7
10
1106.757
20
474.324
30
0.0
11
1106.757
21
527.324
31
0.0
0
LINE
5
3f17
8
0-2
6
CONTINUOUS
62
  7
10
1037.838
20
474.324
30
0.0
11
1106.757
21
474.324
31
0.0
0
LINE
5
3f18
8
0-2
6
CONTINUOUS
62
  7
10
1037.838
20
527.324
30
0.0
11
1106.757
21
527.324
31
0.0
0
LINE
5
3f19
8
0-2
6
CONTINUOUS
62
  7
10
474.324
20
1143.243
30
0.0
11
901.536
21
1143.243
31
0.0
0
LINE
5
3f1a
8
0-2
6
CONTINUOUS
62
  7
10
474.324
20
1070.270
30
0.0
11
474.324
21
1143.243
31
0.0
0
LINE
5
3f1b
8
0-2
6
CONTINUOUS
62
  7
10
901.536
20
1070.270
30
0.0
11
901.536
21
1143.243
31
0.0
0
LINE
5
3f1c
8
0-2
6
CONTINUOUS
62
  7
10
901.536
20
1143.243
30
0.0
11
979.324
21
1143.243
31
0.0
0
LINE
5
3f1d
8
0-2
6
CONTINUOUS
62
  7
10
979.324
20
1070.270
30
0.0
11
979.324
21
1143.243
31
0.0
0
ARC
5
3f1e
8
0-0
6
CONTINUOUS
62
  7
10
894.854
20
928.378
30
0.0
40
7.575
50
138.694260
51
221.305740
0
ARC
5
3f1f
8
0-0
6
CONTINUOUS
62
  7
10
902.043
20
928.378
30
0.0
40
7.109
50
135.301788
51
224.698212
0
ARC
5
3f20
8
0-0
6
CONTINUOUS
62
  7
10
908.849
20
928.378
30
0.0
40
7.313
50
136.864670
51
223.135330
0
CIRCLE
5
3f21
8
0-0
6
CONTINUOUS
62
  7
10
723.036
20
928.378
30
0.0
40
3.000
0
CIRCLE
5
3f22
8
0-0
6
CONTINUOUS
62
  7
10
816.536
20
928.378
30
0.0
40
3.000
0
ARC
5
3f23
8
0-0
6
CONTINUOUS
62
  7
10
510.287
20
522.324
30
0.0
40
5.000
50
90.000000
51
111.801666
0
ARC
5
3f24
8
0-0
6
CONTINUOUS
62
  7
10
479.324
20
509.939
30
0.0
40
5.000
50
111.801666
51
180.000000
0
ARC
5
3f25
8
0-0
6
CONTINUOUS
62
  7
10
593.924
20
486.324
30
0.0
40
5.000
50
90.000000
51
119.159744
0
ARC
5
3f26
8
0-0
6
CONTINUOUS
62
  7
10
892.908
20
527.496
30
0.0
40
1.496
50
271.502411
51
353.412811
0
CIRCLE
5
3f27
8
ADD_LINE
6
HIDDEN
62
  3
10
474.324
20
928.378
30
0.0
40
3.000
0
TEXT
5
3f28
100
AcDbEntity
8
0-2
62
7
100
AcDbText
10
717.449
20
1210.608
30
0.0
40
9.750
41
0.800
50
0.000
1
505
100
AcDbText
0
TEXT
5
3f29
100
AcDbEntity
8
0-2
62
7
100
AcDbText
10
1280.764
20
1210.608
30
0.0
40
9.750
41
0.800
50
0.000
1
53
100
AcDbText
0
TEXT
5
3f2a
100
AcDbEntity
8
0-2
62
7
100
AcDbText
10
781.449
20
290.338
30
0.0
40
9.750
41
0.800
50
0.000
1
377
100
AcDbText
0
TEXT
5
3f2b
100
AcDbEntity
8
0-2
62
7
100
AcDbText
10
528.949
20
290.338
30
0.0
40
9.750
41
0.800
50
0.000
1
128
100
AcDbText
0
TEXT
5
3f2c
100
AcDbEntity
8
0-2
62
7
100
AcDbText
10
1104.257
20
919.003
30
0.0
40
9.750
41
0.800
50
90.000
1
191
100
AcDbText
0
TEXT
5
3f2d
100
AcDbEntity
8
0-2
62
7
100
AcDbText
10
1104.257
20
494.574
30
0.0
40
9.750
41
0.800
50
90.000
1
53
100
AcDbText
0
TEXT
5
3f2e
100
AcDbEntity
8
0-2
62
7
100
AcDbText
10
678.555
20
1145.743
30
0.0
40
9.750
41
0.800
50
0.000
1
427
100
AcDbText
0
TEXT
5
3f2f
100
AcDbEntity
8
0-2
62
7
100
AcDbText
10
934.180
20
1145.743
30
0.0
40
9.750
41
0.800
50
0.000
1
78
100
AcDbText
0
POINT
5
3f30
8
0-2
62
  7
10
474.324
20
1208.108
30
0.0
0
POINT
5
3f31
8
0-2
62
  7
10
979.324
20
1208.108
30
0.0
0
POINT
5
3f32
8
0-2
62
  7
10
1260.514
20
1208.108
30
0.0
0
POINT
5
3f33
8
0-2
62
  7
10
1313.514
20
1208.108
30
0.0
0
POINT
5
3f34
8
0-2
62
  7
10
979.324
20
287.838
30
0.0
0
POINT
5
3f35
8
0-2
62
  7
10
602.324
20
287.838
30
0.0
0
POINT
5
3f36
8
0-2
62
  7
10
474.324
20
287.838
30
0.0
0
POINT
5
3f37
8
0-2
62
  7
10
602.324
20
287.838
30
0.0
0
POINT
5
3f38
8
0-2
62
  7
10
1106.757
20
1023.878
30
0.0
0
POINT
5
3f39
8
0-2
62
  7
10
1106.757
20
832.878
30
0.0
0
POINT
5
3f3a
8
0-2
62
  7
10
1106.757
20
474.324
30
0.0
0
POINT
5
3f3b
8
0-2
62
  7
10
1106.757
20
527.324
30
0.0
0
POINT
5
3f3c
8
0-2
62
  7
10
474.324
20
1143.243
30
0.0
0
POINT
5
3f3d
8
0-2
62
  7
10
901.536
20
1143.243
30
0.0
0
POINT
5
3f3e
8
0-2
62
  7
10
979.324
20
1143.243
30
0.0
0
ENDSEC
0
EOF
